  0
SECTION
  2
HEADER
  9
$ACADVER
  1
AC1014
  9
$ACADMAINTVER
 70
     9
  9
$DWGCODEPAGE
  3
ANSI_932
  9
$INSBASE
 10
0.0
 20
0.0
 30
0.0
  9
$EXTMIN
 10
136.0550501886204
 20
83.13262618031661
 30
0.0
  9
$EXTMAX
 10
1014.467673883566
 20
692.5604854686049
 30
0.0
  9
$LIMMIN
 10
0.0
 20
0.0
  9
$LIMMAX
 10
420.0
 20
297.0
  9
$ORTHOMODE
 70
     0
  9
$REGENMODE
 70
     1
  9
$FILLMODE
 70
     1
  9
$QTEXTMODE
 70
     0
  9
$MIRRTEXT
 70
     1
  9
$DRAGMODE
 70
     2
  9
$LTSCALE
 40
1.0
  9
$OSMODE
 70
    47
  9
$ATTMODE
 70
     1
  9
$TEXTSIZE
 40
15.0
  9
$TRACEWID
 40
1.0
  9
$TEXTSTYLE
  7
STANDARD
  9
$CLAYER
  8
SCALE
  9
$CELTYPE
  6
BYLAYER
  9
$CECOLOR
 62
   256
  9
$CELTSCALE
 40
1.0
  9
$DELOBJ
 70
     1
  9
$DISPSILH
 70
     0
  9
$DIMSCALE
 40
1.0
  9
$DIMASZ
 40
10.0
  9
$DIMEXO
 40
10.0
  9
$DIMDLI
 40
3.75
  9
$DIMRND
 40
0.0
  9
$DIMDLE
 40
0.0
  9
$DIMEXE
 40
0.5
  9
$DIMTP
 40
0.0
  9
$DIMTM
 40
0.0
  9
$DIMTXT
 40
15.0
  9
$DIMCEN
 40
2.5
  9
$DIMTSZ
 40
0.0
  9
$DIMTOL
 70
     0
  9
$DIMLIM
 70
     0
  9
$DIMTIH
 70
     0
  9
$DIMTOH
 70
     0
  9
$DIMSE1
 70
     0
  9
$DIMSE2
 70
     0
  9
$DIMTAD
 70
     1
  9
$DIMZIN
 70
     8
  9
$DIMBLK
  1

  9
$DIMASO
 70
     1
  9
$DIMSHO
 70
     1
  9
$DIMPOST
  1

  9
$DIMAPOST
  1

  9
$DIMALT
 70
     0
  9
$DIMALTD
 70
     3
  9
$DIMALTF
 40
0.03937007874016
  9
$DIMLFAC
 40
1.0
  9
$DIMTOFL
 70
     1
  9
$DIMTVP
 40
0.0
  9
$DIMTIX
 70
     1
  9
$DIMSOXD
 70
     0
  9
$DIMSAH
 70
     0
  9
$DIMBLK1
  1

  9
$DIMBLK2
  1

  9
$DIMSTYLE
  2
ｺﾋ___-_ISO-25
  9
$DIMCLRD
 70
   256
  9
$DIMCLRE
 70
   256
  9
$DIMCLRT
 70
   256
  9
$DIMTFAC
 40
1.0
  9
$DIMGAP
 40
2.0
  9
$DIMJUST
 70
     0
  9
$DIMSD1
 70
     0
  9
$DIMSD2
 70
     0
  9
$DIMTOLJ
 70
     0
  9
$DIMTZIN
 70
     8
  9
$DIMALTZ
 70
     0
  9
$DIMALTTZ
 70
     0
  9
$DIMFIT
 70
     3
  9
$DIMUPT
 70
     0
  9
$DIMUNIT
 70
     2
  9
$DIMDEC
 70
     0
  9
$DIMTDEC
 70
     0
  9
$DIMALTU
 70
     2
  9
$DIMALTTD
 70
     3
  9
$DIMTXSTY
  7
STANDARD
  9
$DIMAUNIT
 70
     0
  9
$LUNITS
 70
     2
  9
$LUPREC
 70
     4
  9
$SKETCHINC
 40
1.0
  9
$FILLETRAD
 40
0.0
  9
$AUNITS
 70
     0
  9
$AUPREC
 70
     0
  9
$MENU
  1
.
  9
$ELEVATION
 40
0.0
  9
$PELEVATION
 40
0.0
  9
$THICKNESS
 40
0.0
  9
$LIMCHECK
 70
     0
  9
$BLIPMODE
 70
     0
  9
$CHAMFERA
 40
10.0
  9
$CHAMFERB
 40
10.0
  9
$CHAMFERC
 40
20.0
  9
$CHAMFERD
 40
0.0
  9
$SKPOLY
 70
     0
  9
$TDCREATE
 40
2453123.474063217
  9
$TDUPDATE
 40
2453194.569952615
  9
$TDINDWG
 40
0.4612270255
  9
$TDUSRTIMER
 40
0.4612263079
  9
$USRTIMER
 70
     1
  9
$ANGBASE
 50
0.0
  9
$ANGDIR
 70
     0
  9
$PDMODE
 70
     0
  9
$PDSIZE
 40
0.0
  9
$PLINEWID
 40
0.0
  9
$COORDS
 70
     1
  9
$SPLFRAME
 70
     0
  9
$SPLINETYPE
 70
     6
  9
$SPLINESEGS
 70
     8
  9
$ATTDIA
 70
     0
  9
$ATTREQ
 70
     1
  9
$HANDLING
 70
 22529
  9
$HANDSEED
  5
A27
  9
$SURFTAB1
 70
     6
  9
$SURFTAB2
 70
     6
  9
$SURFTYPE
 70
     6
  9
$SURFU
 70
     6
  9
$SURFV
 70
     6
  9
$UCSNAME
  2

  9
$UCSORG
 10
0.0
 20
0.0
 30
0.0
  9
$UCSXDIR
 10
1.0
 20
0.0
 30
0.0
  9
$UCSYDIR
 10
0.0
 20
1.0
 30
0.0
  9
$PUCSNAME
  2

  9
$PUCSORG
 10
0.0
 20
0.0
 30
0.0
  9
$PUCSXDIR
 10
1.0
 20
0.0
 30
0.0
  9
$PUCSYDIR
 10
0.0
 20
1.0
 30
0.0
  9
$USERI1
 70
     0
  9
$USERI2
 70
     0
  9
$USERI3
 70
     0
  9
$USERI4
 70
     0
  9
$USERI5
 70
     0
  9
$USERR1
 40
0.0
  9
$USERR2
 40
0.0
  9
$USERR3
 40
0.0
  9
$USERR4
 40
0.0
  9
$USERR5
 40
0.0
  9
$WORLDVIEW
 70
     1
  9
$SHADEDGE
 70
     3
  9
$SHADEDIF
 70
    70
  9
$TILEMODE
 70
     1
  9
$MAXACTVP
 70
    48
  9
$PINSBASE
 10
0.0
 20
0.0
 30
0.0
  9
$PLIMCHECK
 70
     0
  9
$PEXTMIN
 10
26.66076962115562
 20
20.31135699206657
 30
-0.0015258207003583
  9
$PEXTMAX
 10
240.039213369355
 20
182.8886381005154
 30
0.0000000349246037
  9
$PLIMMIN
 10
-6.350006103515625
 20
-6.349999904632568
  9
$PLIMMAX
 10
273.0499877929687
 20
209.5499939918517
  9
$UNITMODE
 70
     0
  9
$VISRETAIN
 70
     1
  9
$PLINEGEN
 70
     0
  9
$PSLTSCALE
 70
     1
  9
$TREEDEPTH
 70
  3020
  9
$PICKSTYLE
 70
     1
  9
$CMLSTYLE
  2
STANDARD
  9
$CMLJUST
 70
     0
  9
$CMLSCALE
 40
20.0
  9
$PROXYGRAPHICS
 70
     1
  9
$MEASUREMENT
 70
     1
  0
ENDSEC
  0
SECTION
  2
CLASSES
  0
CLASS
  1
ACDBDICTIONARYWDFLT
  2
AcDbDictionaryWithDefault
  3
AutoCAD 2000
 90
        0
280
     0
281
     0
  0
CLASS
  1
ACDBPLACEHOLDER
  2
AcDbPlaceHolder
  3
AutoCAD 2000
 90
        0
280
     0
281
     0
  0
CLASS
  1
LAYOUT
  2
AcDbLayout
  3
AutoCAD 2000
 90
        0
280
     0
281
     0
  0
CLASS
  1
DICTIONARYVAR
  2
AcDbDictionaryVar
  3
AutoCAD 2000
 90
        0
280
     0
281
     0
  0
CLASS
  1
LONG_TRANSACTION
  2
AcDbLongTransaction
  3
AutoCAD 2000
 90
        0
280
     0
281
     0
  0
CLASS
  1
LWPOLYLINE
  2
AcDbPolyline
  3
AutoCAD 2000
 90
        0
280
     0
281
     1
  0
CLASS
  1
HATCH
  2
AcDbHatch
  3
AutoCAD 2000
 90
        0
280
     0
281
     1
  0
CLASS
  1
XRECORD
  2
AcDbXrecord
  3
AutoCAD 2000
 90
        0
280
     0
281
     0
  0
CLASS
  1
LONG_TRANSACTION
  2
AcDbLongTransaction
  3
AutoCAD 2000
 90
        0
280
     0
281
     0
  0
CLASS
  1
LWPOLYLINE
  2
AcDbPolyline
  3
AutoCAD 2000
 90
        0
280
     0
281
     1
  0
CLASS
  1
HATCH
  2
AcDbHatch
  3
AutoCAD 2000
 90
        0
280
     0
281
     1
  0
CLASS
  1
XRECORD
  2
AcDbXrecord
  3
AutoCAD 2000
 90
        0
280
     0
281
     0
  0
CLASS
  1
DIMASSOC
  2
AcDbDimAssoc
  3
"AcDbDimAssoc|Product Desc:     AcDim ARX App For Dimension|Company:          Autodesk, Inc.|WEB Address:      www.autodesk.com"
 90
        0
280
     0
281
     0
  0
CLASS
  1
LONG_TRANSACTION
  2
AcDbLongTransaction
  3
AutoCAD 2000
 90
        0
280
     0
281
     0
  0
CLASS
  1
LWPOLYLINE
  2
AcDbPolyline
  3
AutoCAD 2000
 90
        0
280
     0
281
     1
  0
CLASS
  1
HATCH
  2
AcDbHatch
  3
AutoCAD 2000
 90
        0
280
     0
281
     1
  0
CLASS
  1
XRECORD
  2
AcDbXrecord
  3
AutoCAD 2000
 90
        0
280
     0
281
     0
  0
CLASS
  1
LONG_TRANSACTION
  2
AcDbLongTransaction
  3
AutoCAD 2000
 90
        0
280
     0
281
     0
  0
CLASS
  1
LWPOLYLINE
  2
AcDbPolyline
  3
AutoCAD 2000
 90
        0
280
     0
281
     1
  0
CLASS
  1
HATCH
  2
AcDbHatch
  3
AutoCAD 2000
 90
        0
280
     0
281
     1
  0
CLASS
  1
XRECORD
  2
AcDbXrecord
  3
AutoCAD 2000
 90
        0
280
     0
281
     0
  0
ENDSEC
  0
SECTION
  2
TABLES
  0
TABLE
  2
VPORT
  5
8
330
0
100
AcDbSymbolTable
 70
     2
  0
VPORT
  5
A02
330
8
100
AcDbSymbolTableRecord
100
AcDbViewportTableRecord
  2
*ACTIVE
 70
     0
 10
0.0
 20
0.0
 11
1.0
 21
1.0
 12
704.6515909701493
 22
362.4224993048965
 13
0.0
 23
0.0
 14
10.0
 24
10.0
 15
10.0
 25
10.0
 16
0.0
 26
0.0
 36
1.0
 17
0.0
 27
0.0
 37
0.0
 40
791.6167772143325
 41
1.526060606060605
 42
50.0
 43
0.0
 44
0.0
 50
0.0
 51
0.0
 71
     0
 72
   100
 73
     1
 74
     3
 75
     0
 76
     0
 77
     0
 78
     0
  0
ENDTAB
  0
TABLE
  2
LTYPE
  5
5
330
0
100
AcDbSymbolTable
 70
    46
  0
LTYPE
  5
14
330
5
100
AcDbSymbolTableRecord
100
AcDbLinetypeTableRecord
  2
BYBLOCK
 70
     0
  3

 72
    65
 73
     0
 40
0.0
  0
LTYPE
  5
15
330
5
100
AcDbSymbolTableRecord
100
AcDbLinetypeTableRecord
  2
BYLAYER
 70
     0
  3

 72
    65
 73
     0
 40
0.0
  0
LTYPE
  5
16
330
5
100
AcDbSymbolTableRecord
100
AcDbLinetypeTableRecord
  2
CONTINUOUS
 70
     0
  3
Solid line
 72
    65
 73
     0
 40
0.0
  0
LTYPE
  5
15A
330
5
100
AcDbSymbolTableRecord
100
AcDbLinetypeTableRecord
  2
ACAD_ISO02W100
 70
     0
  3
ISO dash __ __ __ __ __ __ __ __ __ __ __ __ __
 72
    65
 73
     2
 40
15.0
 49
12.0
 74
     0
 49
-3.0
 74
     0
  0
LTYPE
  5
15B
330
5
100
AcDbSymbolTableRecord
100
AcDbLinetypeTableRecord
  2
ACAD_ISO03W100
 70
     0
  3
ISO dash space __    __    __    __    __    __
 72
    65
 73
     2
 40
30.0
 49
12.0
 74
     0
 49
-18.0
 74
     0
  0
LTYPE
  5
15C
330
5
100
AcDbSymbolTableRecord
100
AcDbLinetypeTableRecord
  2
ACAD_ISO04W100
 70
     0
  3
ISO long-dash dot ____ . ____ . ____ . ____ . _
 72
    65
 73
     4
 40
30.0
 49
24.0
 74
     0
 49
-3.0
 74
     0
 49
0.0
 74
     0
 49
-3.0
 74
     0
  0
LTYPE
  5
15D
330
5
100
AcDbSymbolTableRecord
100
AcDbLinetypeTableRecord
  2
ACAD_ISO05W100
 70
     0
  3
ISO long-dash double-dot ____ .. ____ .. ____ .
 72
    65
 73
     6
 40
33.0
 49
24.0
 74
     0
 49
-3.0
 74
     0
 49
0.0
 74
     0
 49
-3.0
 74
     0
 49
0.0
 74
     0
 49
-3.0
 74
     0
  0
LTYPE
  5
15E
330
5
100
AcDbSymbolTableRecord
100
AcDbLinetypeTableRecord
  2
ACAD_ISO06W100
 70
     0
  3
ISO long-dash triple-dot ____ ... ____ ... ____
 72
    65
 73
     8
 40
36.0
 49
24.0
 74
     0
 49
-3.0
 74
     0
 49
0.0
 74
     0
 49
-3.0
 74
     0
 49
0.0
 74
     0
 49
-3.0
 74
     0
 49
0.0
 74
     0
 49
-3.0
 74
     0
  0
LTYPE
  5
15F
330
5
100
AcDbSymbolTableRecord
100
AcDbLinetypeTableRecord
  2
ACAD_ISO07W100
 70
     0
  3
ISO dot . . . . . . . . . . . . . . . . . . . .
 72
    65
 73
     2
 40
3.0
 49
0.0
 74
     0
 49
-3.0
 74
     0
  0
LTYPE
  5
160
330
5
100
AcDbSymbolTableRecord
100
AcDbLinetypeTableRecord
  2
ACAD_ISO08W100
 70
     0
  3
ISO long-dash short-dash ____ __ ____ __ ____ _
 72
    65
 73
     4
 40
36.0
 49
24.0
 74
     0
 49
-3.0
 74
     0
 49
6.0
 74
     0
 49
-3.0
 74
     0
  0
LTYPE
  5
161
330
5
100
AcDbSymbolTableRecord
100
AcDbLinetypeTableRecord
  2
ACAD_ISO09W100
 70
     0
  3
ISO long-dash double-short-dash ____ __ __ ____
 72
    65
 73
     6
 40
45.0
 49
24.0
 74
     0
 49
-3.0
 74
     0
 49
6.0
 74
     0
 49
-3.0
 74
     0
 49
6.0
 74
     0
 49
-3.0
 74
     0
  0
LTYPE
  5
162
330
5
100
AcDbSymbolTableRecord
100
AcDbLinetypeTableRecord
  2
ACAD_ISO10W100
 70
     0
  3
ISO dash dot __ . __ . __ . __ . __ . __ . __ .
 72
    65
 73
     4
 40
18.0
 49
12.0
 74
     0
 49
-3.0
 74
     0
 49
0.0
 74
     0
 49
-3.0
 74
     0
  0
LTYPE
  5
163
330
5
100
AcDbSymbolTableRecord
100
AcDbLinetypeTableRecord
  2
ACAD_ISO11W100
 70
     0
  3
ISO double-dash dot __ __ . __ __ . __ __ . __ 
 72
    65
 73
     6
 40
33.0
 49
12.0
 74
     0
 49
-3.0
 74
     0
 49
12.0
 74
     0
 49
-3.0
 74
     0
 49
0.0
 74
     0
 49
-3.0
 74
     0
  0
LTYPE
  5
164
330
5
100
AcDbSymbolTableRecord
100
AcDbLinetypeTableRecord
  2
ACAD_ISO12W100
 70
     0
  3
ISO dash double-dot __ . . __ . . __ . . __ . .
 72
    65
 73
     6
 40
21.0
 49
12.0
 74
     0
 49
-3.0
 74
     0
 49
0.0
 74
     0
 49
-3.0
 74
     0
 49
0.0
 74
     0
 49
-3.0
 74
     0
  0
LTYPE
  5
165
330
5
100
AcDbSymbolTableRecord
100
AcDbLinetypeTableRecord
  2
ACAD_ISO13W100
 70
     0
  3
ISO double-dash double-dot __ __ . . __ __ . . 
 72
    65
 73
     8
 40
36.0
 49
12.0
 74
     0
 49
-3.0
 74
     0
 49
12.0
 74
     0
 49
-3.0
 74
     0
 49
0.0
 74
     0
 49
-3.0
 74
     0
 49
0.0
 74
     0
 49
-3.0
 74
     0
  0
LTYPE
  5
166
330
5
100
AcDbSymbolTableRecord
100
AcDbLinetypeTableRecord
  2
ACAD_ISO14W100
 70
     0
  3
ISO dash triple-dot __ . . . __ . . . __ . . . 
 72
    65
 73
     8
 40
24.0
 49
12.0
 74
     0
 49
-3.0
 74
     0
 49
0.0
 74
     0
 49
-3.0
 74
     0
 49
0.0
 74
     0
 49
-3.0
 74
     0
 49
0.0
 74
     0
 49
-3.0
 74
     0
  0
LTYPE
  5
167
330
5
100
AcDbSymbolTableRecord
100
AcDbLinetypeTableRecord
  2
ACAD_ISO15W100
 70
     0
  3
ISO double-dash triple-dot __ __ . . . __ __ . 
 72
    65
 73
    10
 40
39.0
 49
12.0
 74
     0
 49
-3.0
 74
     0
 49
12.0
 74
     0
 49
-3.0
 74
     0
 49
0.0
 74
     0
 49
-3.0
 74
     0
 49
0.0
 74
     0
 49
-3.0
 74
     0
 49
0.0
 74
     0
 49
-3.0
 74
     0
  0
LTYPE
  5
168
330
5
100
AcDbSymbolTableRecord
100
AcDbLinetypeTableRecord
  2
BATTING
 70
     0
  3
Batting SSSSSSSSSSSSSSSSSSSSSSSSSSSSSSSSSSSSSSS
 72
    65
 73
     4
 40
10.16253999999999
 49
0.00254
 74
     0
 49
-2.54
 74
     4
 75
   134
340
159
 46
2.54
 50
0.0
 44
-2.54
 45
0.0
 49
-5.08
 74
     4
 75
   134
340
159
 46
2.54
 50
180.0
 44
2.54
 45
0.0
 49
-2.54
 74
     0
  0
LTYPE
  5
169
330
5
100
AcDbSymbolTableRecord
100
AcDbLinetypeTableRecord
  2
BORDER
 70
     0
  3
Border __ __ . __ __ . __ __ . __ __ . __ __ .
 72
    65
 73
     6
 40
44.45
 49
12.7
 74
     0
 49
-6.349999999999999
 74
     0
 49
12.7
 74
     0
 49
-6.349999999999999
 74
     0
 49
0.0
 74
     0
 49
-6.349999999999999
 74
     0
  0
LTYPE
  5
16A
330
5
100
AcDbSymbolTableRecord
100
AcDbLinetypeTableRecord
  2
BORDER2
 70
     0
  3
Border (.5x) __.__.__.__.__.__.__.__.__.__.__.
 72
    65
 73
     6
 40
22.225
 49
6.349999999999999
 74
     0
 49
-3.174999999999999
 74
     0
 49
6.349999999999999
 74
     0
 49
-3.174999999999999
 74
     0
 49
0.0
 74
     0
 49
-3.174999999999999
 74
     0
  0
LTYPE
  5
16B
330
5
100
AcDbSymbolTableRecord
100
AcDbLinetypeTableRecord
  2
BORDERX2
 70
     0
  3
Border (2x) ____  ____  .  ____  ____  .  ___
 72
    65
 73
     6
 40
88.9
 49
25.4
 74
     0
 49
-12.7
 74
     0
 49
25.4
 74
     0
 49
-12.7
 74
     0
 49
0.0
 74
     0
 49
-12.7
 74
     0
  0
LTYPE
  5
16C
330
5
100
AcDbSymbolTableRecord
100
AcDbLinetypeTableRecord
  2
CENTER
 70
     0
  3
Center ____ _ ____ _ ____ _ ____ _ ____ _ ____
 72
    65
 73
     4
 40
50.8
 49
31.75
 74
     0
 49
-6.349999999999999
 74
     0
 49
6.349999999999999
 74
     0
 49
-6.349999999999999
 74
     0
  0
LTYPE
  5
16D
330
5
100
AcDbSymbolTableRecord
100
AcDbLinetypeTableRecord
  2
CENTER2
 70
     0
  3
Center (.5x) ___ _ ___ _ ___ _ ___ _ ___ _ ___
 72
    65
 73
     4
 40
28.57499999999999
 49
19.05
 74
     0
 49
-3.174999999999999
 74
     0
 49
3.174999999999999
 74
     0
 49
-3.174999999999999
 74
     0
  0
LTYPE
  5
16E
330
5
100
AcDbSymbolTableRecord
100
AcDbLinetypeTableRecord
  2
CENTERX2
 70
     0
  3
Center (2x) ________  __  ________  __  _____
 72
    65
 73
     4
 40
101.6
 49
63.5
 74
     0
 49
-12.7
 74
     0
 49
12.7
 74
     0
 49
-12.7
 74
     0
  0
LTYPE
  5
16F
330
5
100
AcDbSymbolTableRecord
100
AcDbLinetypeTableRecord
  2
DASHDOT
 70
     0
  3
Dash dot __ . __ . __ . __ . __ . __ . __ . __
 72
    65
 73
     4
 40
25.4
 49
12.7
 74
     0
 49
-6.349999999999999
 74
     0
 49
0.0
 74
     0
 49
-6.349999999999999
 74
     0
  0
LTYPE
  5
170
330
5
100
AcDbSymbolTableRecord
100
AcDbLinetypeTableRecord
  2
DASHDOT2
 70
     0
  3
Dash dot (.5x) _._._._._._._._._._._._._._._.
 72
    65
 73
     4
 40
12.7
 49
6.349999999999999
 74
     0
 49
-3.174999999999999
 74
     0
 49
0.0
 74
     0
 49
-3.174999999999999
 74
     0
  0
LTYPE
  5
171
330
5
100
AcDbSymbolTableRecord
100
AcDbLinetypeTableRecord
  2
DASHDOTX2
 70
     0
  3
Dash dot (2x) ____  .  ____  .  ____  .  ___
 72
    65
 73
     4
 40
50.8
 49
25.4
 74
     0
 49
-12.7
 74
     0
 49
0.0
 74
     0
 49
-12.7
 74
     0
  0
LTYPE
  5
172
330
5
100
AcDbSymbolTableRecord
100
AcDbLinetypeTableRecord
  2
DASHED
 70
     0
  3
Dashed __ __ __ __ __ __ __ __ __ __ __ __ __ _
 72
    65
 73
     2
 40
19.04999999999999
 49
12.7
 74
     0
 49
-6.349999999999999
 74
     0
  0
LTYPE
  5
173
330
5
100
AcDbSymbolTableRecord
100
AcDbLinetypeTableRecord
  2
DASHED2
 70
     0
  3
Dashed (.5x) _ _ _ _ _ _ _ _ _ _ _ _ _ _ _ _ _
 72
    65
 73
     2
 40
9.524999999999998
 49
6.349999999999999
 74
     0
 49
-3.174999999999999
 74
     0
  0
LTYPE
  5
174
330
5
100
AcDbSymbolTableRecord
100
AcDbLinetypeTableRecord
  2
DASHEDX2
 70
     0
  3
Dashed (2x) ____  ____  ____  ____  ____  ___
 72
    65
 73
     2
 40
38.09999999999999
 49
25.4
 74
     0
 49
-12.7
 74
     0
  0
LTYPE
  5
175
330
5
100
AcDbSymbolTableRecord
100
AcDbLinetypeTableRecord
  2
DIVIDE
 70
     0
  3
Divide ____ . . ____ . . ____ . . ____ . . ____
 72
    65
 73
     6
 40
31.74999999999999
 49
12.7
 74
     0
 49
-6.349999999999999
 74
     0
 49
0.0
 74
     0
 49
-6.349999999999999
 74
     0
 49
0.0
 74
     0
 49
-6.349999999999999
 74
     0
  0
LTYPE
  5
176
330
5
100
AcDbSymbolTableRecord
100
AcDbLinetypeTableRecord
  2
DIVIDE2
 70
     0
  3
Divide (.5x) __..__..__..__..__..__..__..__.._
 72
    65
 73
     6
 40
15.87499999999999
 49
6.349999999999999
 74
     0
 49
-3.174999999999999
 74
     0
 49
0.0
 74
     0
 49
-3.174999999999999
 74
     0
 49
0.0
 74
     0
 49
-3.174999999999999
 74
     0
  0
LTYPE
  5
177
330
5
100
AcDbSymbolTableRecord
100
AcDbLinetypeTableRecord
  2
DIVIDEX2
 70
     0
  3
Divide (2x) ________  .  .  ________  .  .  _
 72
    65
 73
     6
 40
63.49999999999999
 49
25.4
 74
     0
 49
-12.7
 74
     0
 49
0.0
 74
     0
 49
-12.7
 74
     0
 49
0.0
 74
     0
 49
-12.7
 74
     0
  0
LTYPE
  5
178
330
5
100
AcDbSymbolTableRecord
100
AcDbLinetypeTableRecord
  2
DOT
 70
     0
  3
Dot . . . . . . . . . . . . . . . . . . . . . .
 72
    65
 73
     2
 40
6.349999999999999
 49
0.0
 74
     0
 49
-6.349999999999999
 74
     0
  0
LTYPE
  5
179
330
5
100
AcDbSymbolTableRecord
100
AcDbLinetypeTableRecord
  2
DOT2
 70
     0
  3
Dot (.5x) .....................................
 72
    65
 73
     2
 40
3.174999999999999
 49
0.0
 74
     0
 49
-3.174999999999999
 74
     0
  0
LTYPE
  5
17A
330
5
100
AcDbSymbolTableRecord
100
AcDbLinetypeTableRecord
  2
DOTX2
 70
     0
  3
Dot (2x) .  .  .  .  .  .  .  .  .  .  .  .  . 
 72
    65
 73
     2
 40
12.7
 49
0.0
 74
     0
 49
-12.7
 74
     0
  0
LTYPE
  5
17B
330
5
100
AcDbSymbolTableRecord
100
AcDbLinetypeTableRecord
  2
FENCELINE1
 70
     0
  3
Fenceline circle ----0-----0----0-----0----0---
 72
    65
 73
     4
 40
36.82999999999999
 49
6.349999999999999
 74
     0
 49
-2.54
 74
     4
 75
   133
340
159
 46
2.54
 50
0.0
 44
-2.54
 45
0.0
 49
-2.54
 74
     0
 49
25.4
 74
     0
  0
LTYPE
  5
17C
330
5
100
AcDbSymbolTableRecord
100
AcDbLinetypeTableRecord
  2
FENCELINE2
 70
     0
  3
Fenceline square ----[]-----[]----[]-----[]----
 72
    65
 73
     4
 40
36.82999999999999
 49
6.349999999999999
 74
     0
 49
-2.54
 74
     4
 75
   132
340
159
 46
2.54
 50
0.0
 44
-2.54
 45
0.0
 49
-2.54
 74
     0
 49
25.4
 74
     0
  0
LTYPE
  5
17D
330
5
100
AcDbSymbolTableRecord
100
AcDbLinetypeTableRecord
  2
GAS_LINE
 70
     0
  3
Gas line ----GAS----GAS----GAS----GAS----GAS---
 72
    65
 73
     3
 40
24.13
 49
12.7
 74
     0
 49
-5.08
 74
     2
 75
     0
340
11
 46
2.54
 50
0.0
 44
-2.54
 45
-1.27
  9
GAS
 49
-6.349999999999999
 74
     0
  0
LTYPE
  5
17E
330
5
100
AcDbSymbolTableRecord
100
AcDbLinetypeTableRecord
  2
HIDDEN
 70
     0
  3
Hidden __ __ __ __ __ __ __ __ __ __ __ __ __ _
 72
    65
 73
     2
 40
9.524999999999998
 49
6.349999999999999
 74
     0
 49
-3.174999999999999
 74
     0
  0
LTYPE
  5
17F
330
5
100
AcDbSymbolTableRecord
100
AcDbLinetypeTableRecord
  2
HIDDEN2
 70
     0
  3
Hidden (.5x) _ _ _ _ _ _ _ _ _ _ _ _ _ _ _ _ _
 72
    65
 73
     2
 40
4.762499999999999
 49
3.174999999999999
 74
     0
 49
-1.587499999999999
 74
     0
  0
LTYPE
  5
180
330
5
100
AcDbSymbolTableRecord
100
AcDbLinetypeTableRecord
  2
HIDDENX2
 70
     0
  3
Hidden (2x) ____ ____ ____ ____ ____ ____ ____
 72
    65
 73
     2
 40
19.04999999999999
 49
12.7
 74
     0
 49
-6.349999999999999
 74
     0
  0
LTYPE
  5
181
330
5
100
AcDbSymbolTableRecord
100
AcDbLinetypeTableRecord
  2
HOT_WATER_SUPPLY
 70
     0
  3
Hot water supply ---- HW ---- HW ---- HW ----
 72
    65
 73
     3
 40
22.86
 49
12.7
 74
     0
 49
-5.08
 74
     2
 75
     0
340
11
 46
2.54
 50
0.0
 44
-2.54
 45
-1.27
  9
HW
 49
-5.08
 74
     0
  0
LTYPE
  5
182
330
5
100
AcDbSymbolTableRecord
100
AcDbLinetypeTableRecord
  2
PHANTOM
 70
     0
  3
Phantom ______  __  __  ______  __  __  ______
 72
    65
 73
     6
 40
63.5
 49
31.75
 74
     0
 49
-6.349999999999999
 74
     0
 49
6.349999999999999
 74
     0
 49
-6.349999999999999
 74
     0
 49
6.349999999999999
 74
     0
 49
-6.349999999999999
 74
     0
  0
LTYPE
  5
183
330
5
100
AcDbSymbolTableRecord
100
AcDbLinetypeTableRecord
  2
PHANTOM2
 70
     0
  3
Phantom (.5x) ___ _ _ ___ _ _ ___ _ _ ___ _ _
 72
    65
 73
     6
 40
31.75
 49
15.875
 74
     0
 49
-3.174999999999999
 74
     0
 49
3.174999999999999
 74
     0
 49
-3.174999999999999
 74
     0
 49
3.174999999999999
 74
     0
 49
-3.174999999999999
 74
     0
  0
LTYPE
  5
184
330
5
100
AcDbSymbolTableRecord
100
AcDbLinetypeTableRecord
  2
PHANTOMX2
 70
     0
  3
Phantom (2x) ____________    ____    ____   _
 72
    65
 73
     6
 40
127.0
 49
63.5
 74
     0
 49
-12.7
 74
     0
 49
12.7
 74
     0
 49
-12.7
 74
     0
 49
12.7
 74
     0
 49
-12.7
 74
     0
  0
LTYPE
  5
185
330
5
100
AcDbSymbolTableRecord
100
AcDbLinetypeTableRecord
  2
TRACKS
 70
     0
  3
Tracks -|-|-|-|-|-|-|-|-|-|-|-|-|-|-|-|-|-|-|-|
 72
    65
 73
     2
 40
7.62
 49
3.81
 74
     4
 75
   130
340
159
 46
6.349999999999999
 50
0.0
 44
0.0
 45
0.0
 49
3.81
 74
     0
  0
LTYPE
  5
186
330
5
100
AcDbSymbolTableRecord
100
AcDbLinetypeTableRecord
  2
ZIGZAG
 70
     0
  3
Zig zag /\/\/\/\/\/\/\/\/\/\/\/\/\/\/\/\/\/\/\/
 72
    65
 73
     4
 40
20.32254
 49
0.00254
 74
     0
 49
-5.08
 74
     4
 75
   131
340
159
 46
5.08
 50
0.0
 44
-5.08
 45
0.0
 49
-10.16
 74
     4
 75
   131
340
159
 46
5.08
 50
180.0
 44
5.08
 45
0.0
 49
-5.08
 74
     0
  0
ENDTAB
  0
TABLE
  2
LAYER
  5
2
330
0
100
AcDbSymbolTable
 70
     4
  0
LAYER
  5
10
330
2
100
AcDbSymbolTableRecord
100
AcDbLayerTableRecord
  2
0
 70
     0
 62
     7
  6
CONTINUOUS
  0
LAYER
  5
4F1
330
2
100
AcDbSymbolTableRecord
100
AcDbLayerTableRecord
  2
DEFPOINTS
 70
     0
 62
     7
  6
CONTINUOUS
  0
LAYER
  5
64E
330
2
100
AcDbSymbolTableRecord
100
AcDbLayerTableRecord
  2
SCALE
 70
     0
 62
     7
  6
CONTINUOUS
  0
LAYER
  5
6A9
330
2
100
AcDbSymbolTableRecord
100
AcDbLayerTableRecord
  2
MOJI
 70
     0
 62
     7
  6
CONTINUOUS
  0
ENDTAB
  0
TABLE
  2
STYLE
  5
3
330
0
100
AcDbSymbolTable
 70
     2
  0
STYLE
  5
11
330
3
100
AcDbSymbolTableRecord
100
AcDbTextStyleTableRecord
  2
STANDARD
 70
     0
 40
0.0
 41
1.0
 50
0.0
 71
     0
 42
15.0
  3
MS Gothic.ttf
  4

1001
ACAD
1000
MS Gothic
1071
    32817
  0
STYLE
  5
159
330
3
100
AcDbSymbolTableRecord
100
AcDbTextStyleTableRecord
  2

 70
     1
 40
0.0
 41
1.0
 50
0.0
 71
     0
 42
2.5
  3
ltypeshp.shx
  4

  0
ENDTAB
  0
TABLE
  2
VIEW
  5
6
330
0
100
AcDbSymbolTable
 70
     0
  0
ENDTAB
  0
TABLE
  2
UCS
  5
7
330
0
100
AcDbSymbolTable
 70
     0
  0
ENDTAB
  0
TABLE
  2
APPID
  5
9
330
0
100
AcDbSymbolTable
 70
     1
  0
APPID
  5
12
330
9
100
AcDbSymbolTableRecord
100
AcDbRegAppTableRecord
  2
ACAD
 70
     0
  0
ENDTAB
  0
TABLE
  2
DIMSTYLE
  5
A
330
0
100
AcDbSymbolTable
 70
     2
  0
DIMSTYLE
105
27
330
A
100
AcDbSymbolTableRecord
100
AcDbDimStyleTableRecord
  2
ISO-25
 70
     0
  3

  4

  5

  6

  7

 40
1.0
 41
2.5
 42
0.625
 43
3.75
 44
1.25
 45
0.0
 46
0.0
 47
0.0
 48
0.0
140
2.5
141
2.5
142
0.0
143
0.03937007874016
144
1.0
145
0.0
146
1.0
147
0.625
 71
     0
 72
     0
 73
     0
 74
     0
 75
     0
 76
     0
 77
     1
 78
     8
170
     0
171
     3
172
     1
173
     0
174
     0
175
     0
176
     0
177
     0
178
     0
270
     2
271
     2
272
     2
273
     2
274
     3
340
11
275
     0
280
     0
281
     0
282
     0
283
     0
284
     8
285
     0
286
     0
287
     3
288
     0
  0
DIMSTYLE
105
4EF
330
A
100
AcDbSymbolTableRecord
100
AcDbDimStyleTableRecord
  2
ｺﾋ___-_ISO-25
 70
     0
  3

  4

  5

  6

  7

 40
1.0
 41
10.0
 42
10.0
 43
3.75
 44
0.5
 45
0.0
 46
0.0
 47
0.0
 48
0.0
140
15.0
141
2.5
142
0.0
143
0.03937007874016
144
1.0
145
0.0
146
1.0
147
2.0
 71
     0
 72
     0
 73
     0
 74
     0
 75
     0
 76
     0
 77
     1
 78
     8
170
     0
171
     3
172
     1
173
     0
174
     1
175
     0
176
   256
177
   256
178
   256
270
     2
271
     0
272
     0
273
     2
274
     3
340
11
275
     0
280
     0
281
     0
282
     0
283
     0
284
     8
285
     0
286
     0
287
     3
288
     0
  0
ENDTAB
  0
TABLE
  2
BLOCK_RECORD
  5
1
330
0
100
AcDbSymbolTable
 70
     1
  0
BLOCK_RECORD
  5
1F
102
{ACAD_XDICTIONARY
360
2E8
102
}
330
1
100
AcDbSymbolTableRecord
100
AcDbBlockTableRecord
  2
*MODEL_SPACE
  0
BLOCK_RECORD
  5
55
102
{ACAD_XDICTIONARY
360
2EA
102
}
330
1
100
AcDbSymbolTableRecord
100
AcDbBlockTableRecord
  2
*PAPER_SPACE
  0
ENDTAB
  0
ENDSEC
  0
SECTION
  2
BLOCKS
  0
BLOCK
  5
20
330
1F
100
AcDbEntity
  8
0
100
AcDbBlockBegin
  2
*MODEL_SPACE
 70
     0
 10
0.0
 20
0.0
 30
0.0
  3
*MODEL_SPACE
  1

  0
ENDBLK
  5
21
330
1F
100
AcDbEntity
  8
0
100
AcDbBlockEnd
  0
BLOCK
  5
57
330
55
100
AcDbEntity
 67
     1
  8
0
100
AcDbBlockBegin
  2
*PAPER_SPACE
 70
     0
 10
0.0
 20
0.0
 30
0.0
  3
*PAPER_SPACE
  1

  0
ENDBLK
  5
58
330
55
100
AcDbEntity
 67
     1
  8
0
100
AcDbBlockEnd
  0
ENDSEC
  0
SECTION
  2
ENTITIES
  0
SOLID
  5
8CE
330
1F
100
AcDbEntity
  8
SCALE
100
AcDbTrace
 10
263.3405533348331
 20
675.4758830997375
 30
0.0
 11
263.3405533348331
 21
672.1425497664045
 31
0.0
 12
253.3405533348332
 22
673.8092164330709
 32
0.0
 13
253.3405533348332
 23
673.8092164330709
 33
0.0
  0
SOLID
  5
8CF
330
1F
100
AcDbEntity
  8
SCALE
100
AcDbTrace
 10
743.3405533348332
 20
675.4758830997375
 30
0.0
 11
743.3405533348332
 21
672.1425497664045
 31
0.0
 12
753.3405533348331
 22
673.8092164330709
 32
0.0
 13
753.3405533348331
 23
673.8092164330709
 33
0.0
  0
MTEXT
  5
8D0
330
1F
100
AcDbEntity
  8
SCALE
100
AcDbMText
 10
503.3405533348331
 20
683.309216433071
 30
0.0
 40
15.0
 41
0.0
 71
     5
 72
     1
  1
500
1001
ACAD
1000
MTEXTBEGIN
1070
    73
1070
     1
1070
    44
1040
1.0
1070
    74
1070
     0
1000
MTEXTEND
  0
SOLID
  5
8D6
330
1F
100
AcDbEntity
  8
SCALE
100
AcDbTrace
 10
723.3405533348332
 20
505.4758790638056
 30
0.0
 11
723.3405533348332
 21
502.1425457304726
 31
0.0
 12
733.3405533348332
 22
503.8092123971392
 32
0.0
 13
733.3405533348332
 23
503.8092123971392
 33
0.0
  0
SOLID
  5
8D7
330
1F
100
AcDbEntity
  8
SCALE
100
AcDbTrace
 10
763.3405533348332
 20
505.4758790638056
 30
0.0
 11
763.3405533348332
 21
502.1425457304726
 31
0.0
 12
753.3405533348331
 22
503.8092123971392
 32
0.0
 13
753.3405533348331
 23
503.8092123971392
 33
0.0
  0
MTEXT
  5
8D8
330
1F
100
AcDbEntity
  8
SCALE
100
AcDbMText
 10
743.3405533348332
 20
513.3092123971391
 30
0.0
 40
15.0
 41
0.0
 71
     5
 72
     1
  1
20
1001
ACAD
1000
MTEXTBEGIN
1070
    73
1070
     1
1070
    44
1040
1.0
1070
    74
1070
     0
1000
MTEXTEND
  0
SOLID
  5
8DE
330
1F
100
AcDbEntity
  8
SCALE
100
AcDbTrace
 10
828.8368368086112
 20
363.8092123971391
 30
0.0
 11
832.1701701419451
 21
363.8092123971391
 31
0.0
 12
830.5035034752782
 22
373.8092123971391
 32
0.0
 13
830.5035034752782
 23
373.8092123971391
 33
0.0
  0
SOLID
  5
8DF
330
1F
100
AcDbEntity
  8
SCALE
100
AcDbTrace
 10
828.8368368086112
 20
403.8092123971392
 30
0.0
 11
832.1701701419451
 21
403.8092123971392
 31
0.0
 12
830.5035034752782
 22
393.8092123971391
 32
0.0
 13
830.5035034752782
 23
393.8092123971391
 33
0.0
  0
MTEXT
  5
8E0
330
1F
100
AcDbEntity
  8
SCALE
100
AcDbMText
 10
821.0035034752772
 20
383.8092123971405
 30
0.0
 40
15.0
 41
0.0
 71
     5
 72
     1
  1
20
 11
0.0000000000000001
 21
1.0
 31
0.0
1001
ACAD
1000
MTEXTBEGIN
1070
    73
1070
     1
1070
    44
1040
1.0
1070
    74
1070
     0
1000
MTEXTEND
  0
SOLID
  5
8E6
330
1F
100
AcDbEntity
  8
SCALE
100
AcDbTrace
 10
828.8368368086112
 20
443.8092123971391
 30
0.0
 11
832.1701701419451
 21
443.8092123971391
 31
0.0
 12
830.5035034752782
 22
453.8092123971392
 32
0.0
 13
830.5035034752782
 23
453.8092123971392
 33
0.0
  0
SOLID
  5
8E7
330
1F
100
AcDbEntity
  8
SCALE
100
AcDbTrace
 10
828.8368368086112
 20
483.8092123971391
 30
0.0
 11
832.1701701419451
 21
483.8092123971391
 31
0.0
 12
830.5035034752782
 22
473.8092123971391
 32
0.0
 13
830.5035034752782
 23
473.8092123971391
 33
0.0
  0
MTEXT
  5
8E8
330
1F
100
AcDbEntity
  8
SCALE
100
AcDbMText
 10
821.0035034752772
 20
463.8092123971405
 30
0.0
 40
15.0
 41
0.0
 71
     5
 72
     1
  1
20
 11
0.0000000000000001
 21
1.0
 31
0.0
1001
ACAD
1000
MTEXTBEGIN
1070
    73
1070
     1
1070
    44
1040
1.0
1070
    74
1070
     0
1000
MTEXTEND
  0
SOLID
  5
8EC
330
1F
100
AcDbEntity
  8
SCALE
100
AcDbTrace
 10
828.3368368086112
 20
403.8092123971392
 30
0.0
 11
831.6701701419452
 21
403.8092123971392
 31
0.0
 12
830.0035034752781
 22
393.8092123971391
 32
0.0
 13
830.0035034752781
 23
393.8092123971391
 33
0.0
  0
SOLID
  5
8ED
330
1F
100
AcDbEntity
  8
SCALE
100
AcDbTrace
 10
828.3368368086112
 20
443.8092123971391
 30
0.0
 11
831.6701701419452
 21
443.8092123971391
 31
0.0
 12
830.0035034752781
 22
453.8092123971392
 32
0.0
 13
830.0035034752781
 23
453.8092123971392
 33
0.0
  0
MTEXT
  5
8EE
330
1F
100
AcDbEntity
  8
SCALE
100
AcDbMText
 10
820.5035034752773
 20
423.8092123971405
 30
0.0
 40
15.0
 41
0.0
 71
     5
 72
     1
  1
60
 11
0.0000000000000001
 21
1.0
 31
0.0
1001
ACAD
1000
MTEXTBEGIN
1070
    73
1070
     1
1070
    44
1040
1.0
1070
    74
1070
     0
1000
MTEXTEND
  0
SOLID
  5
8F2
330
1F
100
AcDbEntity
  8
SCALE
100
AcDbTrace
 10
153.1396525574873
 20
283.8092123971391
 30
0.0
 11
156.4729858908212
 21
283.8092123971391
 31
0.0
 12
154.8063192241543
 22
273.8092123971391
 32
0.0
 13
154.8063192241543
 23
273.8092123971391
 33
0.0
  0
SOLID
  5
8F3
330
1F
100
AcDbEntity
  8
SCALE
100
AcDbTrace
 10
153.1396525574873
 20
563.8092123971391
 30
0.0
 11
156.4729858908212
 21
563.8092123971391
 31
0.0
 12
154.8063192241543
 22
573.8092123971391
 32
0.0
 13
154.8063192241543
 23
573.8092123971391
 33
0.0
  0
MTEXT
  5
8F4
330
1F
100
AcDbEntity
  8
SCALE
100
AcDbMText
 10
145.3063192241534
 20
423.8092123971401
 30
0.0
 40
15.0
 41
0.0
 71
     5
 72
     1
  1
a
 11
0.0000000000000001
 21
1.0
 31
0.0
1001
ACAD
1000
MTEXTBEGIN
1070
    73
1070
     1
1070
    44
1040
1.0
1070
    74
1070
     0
1000
MTEXTEND
  0
SOLID
  5
8F8
330
1F
100
AcDbEntity
  8
SCALE
100
AcDbTrace
 10
153.1396525574873
 20
133.8092123971391
 30
0.0
 11
156.4729858908212
 21
133.8092123971391
 31
0.0
 12
154.8063192241543
 22
123.8092123971391
 32
0.0
 13
154.8063192241543
 23
123.8092123971391
 33
0.0
  0
SOLID
  5
8F9
330
1F
100
AcDbEntity
  8
SCALE
100
AcDbTrace
 10
153.1396525574873
 20
163.8092123971391
 30
0.0
 11
156.4729858908212
 21
163.8092123971391
 31
0.0
 12
154.8063192241543
 22
173.8092123971391
 32
0.0
 13
154.8063192241543
 23
173.8092123971391
 33
0.0
  0
MTEXT
  5
8FA
330
1F
100
AcDbEntity
  8
SCALE
100
AcDbMText
 10
145.3063192241534
 20
148.80921239714
 30
0.0
 40
15.0
 41
0.0
 71
     5
 72
     1
  1
t
 11
0.0000000000000001
 21
1.0
 31
0.0
1001
ACAD
1000
MTEXTBEGIN
1070
    73
1070
     1
1070
    44
1040
1.0
1070
    74
1070
     0
1000
MTEXTEND
  0
TEXT
  5
8FB
330
1F
100
AcDbEntity
  8
SCALE
100
AcDbText
 10
271.0133421762829
 20
102.6306334845808
 30
0.0
 40
15.0
  1
3
100
AcDbText
  0
TEXT
  5
8FC
330
1F
100
AcDbEntity
  8
SCALE
100
AcDbText
 10
378.9156244585574
 20
85.87374293158564
 30
0.0
 40
15.0
  1
2
100
AcDbText
  0
TEXT
  5
8FD
330
1F
100
AcDbEntity
  8
SCALE
100
AcDbText
 10
267.0772816498747
 20
230.9249760320103
 30
0.0
 40
15.0
  1
3
100
AcDbText
  0
TEXT
  5
8FE
330
1F
100
AcDbEntity
  8
SCALE
100
AcDbText
 10
372.6179203884021
 20
222.8259850291337
 30
0.0
 40
15.0
  1
2
100
AcDbText
  0
TEXT
  5
907
330
1F
100
AcDbEntity
  8
SCALE
100
AcDbText
 10
609.5149991911848
 20
605.5759691257167
 30
0.0
 40
15.0
  1
3
100
AcDbText
  0
TEXT
  5
908
330
1F
100
AcDbEntity
  8
SCALE
100
AcDbText
 10
686.7892605044362
 20
598.2630561532255
 30
0.0
 40
15.0
  1
2
100
AcDbText
  0
SOLID
  5
90C
330
1F
100
AcDbEntity
  8
SCALE
100
AcDbTrace
 10
883.3405533348331
 20
675.4758830997384
 30
0.0
 11
883.3405533348331
 21
672.1425497664053
 31
0.0
 12
873.3405533348332
 22
673.8092164330719
 32
0.0
 13
873.3405533348332
 23
673.8092164330719
 33
0.0
  0
SOLID
  5
90D
330
1F
100
AcDbEntity
  8
SCALE
100
AcDbTrace
 10
913.3405533348332
 20
675.4758830997384
 30
0.0
 11
913.3405533348332
 21
672.1425497664053
 31
0.0
 12
923.3405533348332
 22
673.8092164330719
 32
0.0
 13
923.3405533348332
 23
673.8092164330719
 33
0.0
  0
MTEXT
  5
90E
330
1F
100
AcDbEntity
  8
SCALE
100
AcDbMText
 10
898.3405533348332
 20
683.3092164330719
 30
0.0
 40
15.0
 41
0.0
 71
     5
 72
     1
  1
t
1001
ACAD
1000
MTEXTBEGIN
1070
    73
1070
     1
1070
    44
1040
1.0
1070
    74
1070
     0
1000
MTEXTEND
  0
TEXT
  5
90F
330
1F
100
AcDbEntity
  8
SCALE
100
AcDbText
 10
773.6677333163543
 20
175.7868631269207
 30
0.0
 40
15.0
  1
1
100
AcDbText
  0
TEXT
  5
910
330
1F
100
AcDbEntity
  8
SCALE
100
AcDbText
 10
843.4446718367034
 20
231.4828794045474
 30
0.0
 40
15.0
  1
2
100
AcDbText
  0
TEXT
  5
911
330
1F
100
AcDbEntity
  8
SCALE
100
AcDbText
 10
869.2953191896695
 20
229.3508096218333
 30
0.0
 40
15.0
  1
3
100
AcDbText
  0
SOLID
  5
915
330
1F
100
AcDbEntity
  8
SCALE
100
AcDbTrace
 10
1011.134340550233
 20
558.8092123971391
 30
0.0
 11
1014.467673883566
 21
558.8092123971391
 31
0.0
 12
1012.8010072169
 22
568.8092123971391
 32
0.0
 13
1012.8010072169
 23
568.8092123971391
 33
0.0
  0
SOLID
  5
916
330
1F
100
AcDbEntity
  8
SCALE
100
AcDbTrace
 10
1011.134340550233
 20
288.8092123971391
 30
0.0
 11
1014.467673883566
 21
288.8092123971391
 31
0.0
 12
1012.8010072169
 22
278.8092123971391
 32
0.0
 13
1012.8010072169
 23
278.8092123971391
 33
0.0
  0
MTEXT
  5
917
330
1F
100
AcDbEntity
  8
SCALE
100
AcDbMText
 10
1003.301007216899
 20
423.8092123971405
 30
0.0
 40
15.0
 41
0.0
 71
     5
 72
     1
  1
b
 11
0.0000000000000001
 21
1.0
 31
0.0
1001
ACAD
1000
MTEXTBEGIN
1070
    73
1070
     1
1070
    44
1040
1.0
1070
    74
1070
     0
1000
MTEXTEND
  0
TEXT
  5
918
330
1F
100
AcDbEntity
  8
SCALE
100
AcDbText
 10
784.4251172895174
 20
327.7752393069363
 30
0.0
 40
15.0
  1
1
100
AcDbText
  0
TEXT
  5
919
330
1F
100
AcDbEntity
  8
SCALE
100
AcDbText
 10
781.8952705262354
 20
423.3659401482413
 30
0.0
 40
15.0
  1
4
100
AcDbText
  0
LWPOLYLINE
  5
91A
330
1F
100
AcDbEntity
  8
SCALE
100
AcDbPolyline
 90
        2
 70
   128
 43
1.0
 10
263.3405533348331
 20
673.8092164330709
 10
743.3405533348332
 20
673.8092164330709
  0
LWPOLYLINE
  5
91B
330
1F
100
AcDbEntity
  8
SCALE
100
AcDbPolyline
 90
        2
 70
     0
 43
1.0
 10
743.3405533348332
 20
453.8092123971392
 10
830.5035034752782
 20
453.8092123971392
  0
LWPOLYLINE
  5
91C
330
1F
100
AcDbEntity
  8
SCALE
100
AcDbPolyline
 90
        2
 70
     0
 43
1.0
 10
743.3405533348332
 20
393.8092123971391
 10
830.5035034752782
 20
393.8092123971391
  0
LWPOLYLINE
  5
91D
330
1F
100
AcDbEntity
  8
SCALE
100
AcDbPolyline
 90
        2
 70
     0
 43
1.0
 10
763.3405533348332
 20
473.8092123971391
 10
831.0035034752782
 20
473.8092123971391
  0
LWPOLYLINE
  5
91E
330
1F
100
AcDbEntity
  8
SCALE
100
AcDbPolyline
 90
        2
 70
     0
 43
1.0
 10
743.3405533348332
 20
453.8092123971392
 10
831.0035034752782
 20
453.8092123971392
  0
LWPOLYLINE
  5
91F
330
1F
100
AcDbEntity
  8
SCALE
100
AcDbPolyline
 90
        2
 70
     0
 43
1.0
 10
743.3405533348332
 20
393.8092123971391
 10
831.0035034752782
 20
393.8092123971391
  0
LWPOLYLINE
  5
920
330
1F
100
AcDbEntity
  8
SCALE
100
AcDbPolyline
 90
        2
 70
     0
 43
1.0
 10
763.3405533348332
 20
373.8092123971391
 10
831.0035034752782
 20
373.8092123971391
  0
LWPOLYLINE
  5
921
330
1F
100
AcDbEntity
  8
SCALE
100
AcDbPolyline
 90
        2
 70
     0
 43
1.0
 10
763.3405533348332
 20
503.8092123971392
 10
773.3405533348332
 20
503.8092123971392
  0
LWPOLYLINE
  5
922
330
1F
100
AcDbEntity
  8
MOJI
100
AcDbPolyline
 90
        2
 70
     0
 43
1.0
 10
733.3405533348332
 20
423.8092123971391
 10
784.2706525196863
 20
429.9425723370932
  0
LWPOLYLINE
  5
923
330
1F
100
AcDbEntity
  8
MOJI
100
AcDbPolyline
 90
        2
 70
     0
 43
1.0
 10
741.1310854379863
 20
317.3627218583042
 10
776.2276918299485
 20
333.4455511208852
  0
LWPOLYLINE
  5
924
330
1F
100
AcDbEntity
  8
MOJI
100
AcDbPolyline
 90
        2
 70
     0
 43
1.0
 10
602.3405533348332
 20
568.8092123971391
 10
620.3725875792024
 20
605.6916816395442
  0
LWPOLYLINE
  5
925
330
1F
100
AcDbEntity
  8
MOJI
100
AcDbPolyline
 90
        2
 70
     0
 43
1.0
 10
679.5487634891487
 20
566.7478293529911
 10
695.2791190859443
 20
596.7046598691285
  0
LWPOLYLINE
  5
926
330
1F
100
AcDbEntity
  8
0
100
AcDbPolyline
 90
        2
 70
     0
 43
2.0
 10
303.3405533348332
 20
573.8092123971391
 10
303.3405533348332
 20
563.8092123971391
  0
LWPOLYLINE
  5
927
330
1F
100
AcDbEntity
  8
0
100
AcDbPolyline
 90
        2
 70
     0
 43
2.0
 10
301.3405533348332
 20
573.8092123971391
 10
301.3405533348332
 20
563.8092123971391
  0
LWPOLYLINE
  5
928
330
1F
100
AcDbEntity
  8
0
100
AcDbPolyline
 90
        2
 70
     0
 43
2.0
 10
402.3405533348332
 20
573.8092123971391
 10
402.3405533348332
 20
563.8092123971391
  0
LWPOLYLINE
  5
929
330
1F
100
AcDbEntity
  8
0
100
AcDbPolyline
 90
        2
 70
     0
 43
2.0
 10
404.3405533348332
 20
573.8092123971391
 10
404.3405533348332
 20
563.8092123971391
  0
LWPOLYLINE
  5
92A
330
1F
100
AcDbEntity
  8
0
100
AcDbPolyline
 90
        2
 70
     0
 43
2.0
 10
504.3405533348332
 20
573.8092123971391
 10
504.3405533348332
 20
563.8092123971391
  0
LWPOLYLINE
  5
92B
330
1F
100
AcDbEntity
  8
0
100
AcDbPolyline
 90
        2
 70
     0
 43
2.0
 10
502.3405533348332
 20
573.8092123971391
 10
502.3405533348332
 20
563.8092123971391
  0
LWPOLYLINE
  5
92C
330
1F
100
AcDbEntity
  8
0
100
AcDbPolyline
 90
        2
 70
     0
 43
2.0
 10
604.3405533348332
 20
573.8092123971391
 10
604.3405533348332
 20
563.8092123971391
  0
LWPOLYLINE
  5
92D
330
1F
100
AcDbEntity
  8
0
100
AcDbPolyline
 90
        2
 70
     0
 43
2.0
 10
602.3405533348332
 20
573.8092123971391
 10
602.3405533348332
 20
563.8092123971391
  0
LWPOLYLINE
  5
92E
330
1F
100
AcDbEntity
  8
0
100
AcDbPolyline
 90
        2
 70
     0
 43
2.0
 10
704.3405533348332
 20
573.8092123971391
 10
704.3405533348332
 20
563.8092123971391
  0
LWPOLYLINE
  5
92F
330
1F
100
AcDbEntity
  8
0
100
AcDbPolyline
 90
        2
 70
     0
 43
2.0
 10
702.3405533348332
 20
573.8092123971391
 10
702.3405533348332
 20
563.8092123971391
  0
LWPOLYLINE
  5
930
330
1F
100
AcDbEntity
  8
0
100
AcDbPolyline
 90
        2
 70
     0
 43
2.0
 10
352.3405533348332
 20
573.8092123971391
 10
352.3405533348341
 20
273.8092123971391
  0
LWPOLYLINE
  5
931
330
1F
100
AcDbEntity
  8
0
100
AcDbPolyline
 90
        2
 70
     0
 43
2.0
 10
354.3405533348332
 20
573.8092123971391
 10
354.3405533348341
 20
273.8092123971391
  0
LWPOLYLINE
  5
932
330
1F
100
AcDbEntity
  8
0
100
AcDbPolyline
 90
        2
 70
     0
 43
2.0
 10
452.3405533348332
 20
573.8092123971391
 10
452.3405533348332
 20
273.8092123971391
  0
LWPOLYLINE
  5
933
330
1F
100
AcDbEntity
  8
0
100
AcDbPolyline
 90
        2
 70
     0
 43
2.0
 10
454.3405533348332
 20
573.8092123971391
 10
454.3405533348332
 20
273.8092123971391
  0
LWPOLYLINE
  5
934
330
1F
100
AcDbEntity
  8
0
100
AcDbPolyline
 90
        2
 70
     0
 43
2.0
 10
552.3405533348332
 20
573.8092123971391
 10
552.340553334834
 20
273.8092123971391
  0
LWPOLYLINE
  5
935
330
1F
100
AcDbEntity
  8
0
100
AcDbPolyline
 90
        2
 70
     0
 43
2.0
 10
554.3405533348332
 20
573.8092123971391
 10
554.3405533348341
 20
273.8092123971391
  0
LWPOLYLINE
  5
936
330
1F
100
AcDbEntity
  8
0
100
AcDbPolyline
 90
        2
 70
     0
 43
2.0
 10
652.3405533348332
 20
573.8092123971391
 10
652.340553334834
 20
273.8092123971391
  0
LWPOLYLINE
  5
937
330
1F
100
AcDbEntity
  8
0
100
AcDbPolyline
 90
        2
 70
     0
 43
2.0
 10
654.3405533348332
 20
573.8092123971391
 10
654.3405533348341
 20
273.8092123971391
  0
LWPOLYLINE
  5
938
330
1F
100
AcDbEntity
  8
0
100
AcDbPolyline
 90
        2
 70
     0
 43
2.0
 10
753.3405533348331
 20
473.8092123971391
 10
753.3405533348331
 20
573.8092123971391
  0
LWPOLYLINE
  5
939
330
1F
100
AcDbEntity
  8
0
100
AcDbPolyline
 90
        2
 70
     0
 43
2.0
 10
253.3405533348332
 20
573.8092123971391
 10
253.3405533348332
 20
273.8092123971391
  0
LWPOLYLINE
  5
93A
330
1F
100
AcDbEntity
  8
SCALE
100
AcDbPolyline
 90
        2
 70
     0
 43
1.0
 10
243.3405533348332
 20
173.8092123971391
 10
154.3063192241543
 20
173.8092123971391
  0
LWPOLYLINE
  5
93B
330
1F
100
AcDbEntity
  8
SCALE
100
AcDbPolyline
 90
        2
 70
     0
 43
1.0
 10
243.3405533348332
 20
123.8092123971391
 10
154.3063192241543
 20
123.8092123971391
  0
LWPOLYLINE
  5
93C
330
1F
100
AcDbEntity
  8
SCALE
100
AcDbPolyline
 90
        2
 70
     0
 43
1.0
 10
243.3405533348332
 20
273.8092123971391
 10
154.3063192241543
 20
273.8092123971391
  0
LWPOLYLINE
  5
93D
330
1F
100
AcDbEntity
  8
SCALE
100
AcDbPolyline
 90
        2
 70
     0
 43
1.0
 10
154.8063192241543
 20
133.8092123971391
 10
154.8063192241543
 20
163.8092123971391
  0
LWPOLYLINE
  5
93E
330
1F
100
AcDbEntity
  8
SCALE
100
AcDbPolyline
 90
        2
 70
     0
 43
1.0
 10
154.8063192241543
 20
283.8092123971391
 10
154.8063192241543
 20
563.8092123971391
  0
LWPOLYLINE
  5
93F
330
1F
100
AcDbEntity
  8
MOJI
100
AcDbPolyline
 90
        2
 70
     0
 43
1.0
 10
385.6972207943636
 20
236.6750963853391
 10
425.3734866070899
 20
281.0866149630146
  0
LWPOLYLINE
  5
940
330
1F
100
AcDbEntity
  8
MOJI
100
AcDbPolyline
 90
        2
 70
     0
 43
1.0
 10
281.3315244009736
 20
245.298681147824
 10
302.3405533348332
 20
273.8092123971391
  0
LWPOLYLINE
  5
941
330
1F
100
AcDbEntity
  8
0
100
AcDbPolyline
 90
        2
 70
     0
 43
2.0
 10
253.3405533348341
 20
147.80921239714
 10
753.3405533348331
 20
147.80921239714
  0
LWPOLYLINE
  5
942
330
1F
100
AcDbEntity
  8
0
100
AcDbPolyline
 90
        2
 70
     0
 43
2.0
 10
253.3405533348341
 20
149.80921239714
 10
753.3405533348331
 20
149.80921239714
  0
LWPOLYLINE
  5
943
330
1F
100
AcDbEntity
  8
0
100
AcDbPolyline
 90
        2
 70
     0
 43
2.0
 10
253.3405533348332
 20
123.8092123971391
 10
753.3405533348331
 20
123.8092123971391
  0
LWPOLYLINE
  5
944
330
1F
100
AcDbEntity
  8
0
100
AcDbPolyline
 90
        2
 70
     0
 43
2.0
 10
253.3405533348332
 20
173.8092123971391
 10
753.3405533348331
 20
173.8092123971391
  0
LWPOLYLINE
  5
945
330
1F
100
AcDbEntity
  8
MOJI
100
AcDbPolyline
 90
        2
 70
     0
 43
1.0
 10
394.4478307235604
 20
102.9475783019115
 10
434.1240965362867
 20
147.359096879587
  0
LWPOLYLINE
  5
946
330
1F
100
AcDbEntity
  8
MOJI
100
AcDbPolyline
 90
        2
 70
     0
 43
1.0
 10
282.7325082736442
 20
116.9743251878117
 10
303.7415372075038
 20
145.4848564371268
  0
LWPOLYLINE
  5
947
330
1F
100
AcDbEntity
  8
0
100
AcDbPolyline
 90
        2
 70
     0
 43
2.0
 10
302.8405533348331
 20
152.8092123971391
 10
302.8405533348331
 20
144.8092123971396
  0
LWPOLYLINE
  5
948
330
1F
100
AcDbEntity
  8
0
100
AcDbPolyline
 90
        2
 70
     0
 43
2.0
 10
253.3405533348341
 20
147.80921239714
 10
253.3405533348341
 20
144.80921239714
  0
LWPOLYLINE
  5
949
330
1F
100
AcDbEntity
  8
0
100
AcDbPolyline
 90
        2
 70
     0
 43
2.0
 10
253.3405533348341
 20
149.80921239714
 10
253.3405533348341
 20
154.80921239714
  0
LWPOLYLINE
  5
94A
330
1F
100
AcDbEntity
  8
0
100
AcDbPolyline
 90
        2
 70
     0
 43
2.0
 10
253.3405533348341
 20
149.80921239714
 10
253.3405533348341
 20
152.80921239714
  0
LWPOLYLINE
  5
94B
330
1F
100
AcDbEntity
  8
0
100
AcDbPolyline
 90
        2
 70
     0
 43
2.0
 10
253.3405533348332
 20
173.8092123971391
 10
253.3405533348332
 20
123.8092123971391
  0
LWPOLYLINE
  5
94C
330
1F
100
AcDbEntity
  8
0
100
AcDbPolyline
 90
        2
 70
     0
 43
2.0
 10
354.3405533348341
 20
173.8092123971391
 10
354.3405533348341
 20
123.8092123971396
  0
LWPOLYLINE
  5
94D
330
1F
100
AcDbEntity
  8
0
100
AcDbPolyline
 90
        2
 70
     0
 43
2.0
 10
352.3405533348341
 20
173.8092123971391
 10
352.3405533348341
 20
123.8092123971396
  0
LWPOLYLINE
  5
94E
330
1F
100
AcDbEntity
  8
0
100
AcDbPolyline
 90
        2
 70
     0
 43
2.0
 10
403.8405533348331
 20
152.8092123971387
 10
403.8405533348331
 20
144.8092123971396
  0
LWPOLYLINE
  5
94F
330
1F
100
AcDbEntity
  8
0
100
AcDbPolyline
 90
        2
 70
     0
 43
2.0
 10
454.3405533348332
 20
173.8092123971391
 10
454.3405533348332
 20
123.8092123971396
  0
LWPOLYLINE
  5
950
330
1F
100
AcDbEntity
  8
0
100
AcDbPolyline
 90
        2
 70
     0
 43
2.0
 10
452.3405533348332
 20
173.8092123971391
 10
452.3405533348332
 20
123.8092123971396
  0
LWPOLYLINE
  5
951
330
1F
100
AcDbEntity
  8
0
100
AcDbPolyline
 90
        2
 70
     0
 43
2.0
 10
503.8405533348313
 20
152.8092123971387
 10
503.8405533348322
 20
144.8092123971396
  0
LWPOLYLINE
  5
952
330
1F
100
AcDbEntity
  8
0
100
AcDbPolyline
 90
        2
 70
     0
 43
2.0
 10
603.8405533348322
 20
152.8092123971387
 10
603.8405533348322
 20
144.8092123971396
  0
LWPOLYLINE
  5
953
330
1F
100
AcDbEntity
  8
0
100
AcDbPolyline
 90
        2
 70
     0
 43
2.0
 10
554.3405533348341
 20
173.8092123971391
 10
554.3405533348332
 20
123.8092123971396
  0
LWPOLYLINE
  5
954
330
1F
100
AcDbEntity
  8
0
100
AcDbPolyline
 90
        2
 70
     0
 43
2.0
 10
552.340553334834
 20
173.8092123971391
 10
552.3405533348332
 20
123.8092123971396
  0
LWPOLYLINE
  5
955
330
1F
100
AcDbEntity
  8
0
100
AcDbPolyline
 90
        2
 70
     0
 43
2.0
 10
654.3405533348341
 20
173.8092123971391
 10
654.3405533348332
 20
123.8092123971396
  0
LWPOLYLINE
  5
956
330
1F
100
AcDbEntity
  8
0
100
AcDbPolyline
 90
        2
 70
     0
 43
2.0
 10
652.340553334834
 20
173.8092123971391
 10
652.3405533348332
 20
123.8092123971396
  0
LWPOLYLINE
  5
957
330
1F
100
AcDbEntity
  8
MOJI
100
AcDbPolyline
 90
        2
 70
     0
 43
1.0
 10
730.3737014648231
 20
165.3743456782885
 10
765.4703078567854
 20
181.4571749408696
  0
LWPOLYLINE
  5
958
330
1F
100
AcDbEntity
  8
0
100
AcDbPolyline
 90
        2
 70
     0
 43
2.0
 10
703.8405533348322
 20
152.8092123971387
 10
703.8405533348322
 20
144.8092123971396
  0
LWPOLYLINE
  5
959
330
1F
100
AcDbEntity
  8
0
100
AcDbPolyline
 90
        2
 70
     0
 43
2.0
 10
753.3405533348331
 20
173.8092123971391
 10
753.3405533348331
 20
123.8092123971391
  0
LWPOLYLINE
  5
95A
330
1F
100
AcDbEntity
  8
0
  6
DASHED2
100
AcDbPolyline
 90
        2
 70
     0
 43
2.0
 10
253.3405533348332
 20
293.8092123971391
 10
753.3405533348331
 20
293.8092123971391
  0
LWPOLYLINE
  5
95B
330
1F
100
AcDbEntity
  8
0
  6
DASHED2
100
AcDbPolyline
 90
        2
 70
     0
 43
2.0
 10
753.3405533348331
 20
553.8092123971392
 10
253.3405533348332
 20
553.8092123971392
  0
LWPOLYLINE
  5
95C
330
1F
100
AcDbEntity
  8
0
100
AcDbPolyline
 90
        2
 70
     0
 43
2.0
 10
253.3405533348332
 20
273.8092123971391
 10
753.3405533348331
 20
273.8092123971391
  0
LWPOLYLINE
  5
95D
330
1F
100
AcDbEntity
  8
0
100
AcDbPolyline
 90
        2
 70
     0
 43
2.0
 10
302.3405533348332
 20
283.8092123971391
 10
304.3405533348332
 20
283.8092123971391
  0
LWPOLYLINE
  5
95E
330
1F
100
AcDbEntity
  8
0
100
AcDbPolyline
 90
        2
 70
     0
 43
2.0
 10
304.3405533348332
 20
273.8092123971391
 10
304.3405533348332
 20
283.8092123971391
  0
LWPOLYLINE
  5
95F
330
1F
100
AcDbEntity
  8
0
100
AcDbPolyline
 90
        2
 70
     0
 43
2.0
 10
302.3405533348332
 20
273.8092123971391
 10
302.3405533348332
 20
283.8092123971391
  0
LWPOLYLINE
  5
960
330
1F
100
AcDbEntity
  8
0
100
AcDbPolyline
 90
        2
 70
     0
 43
2.0
 10
402.3405533348332
 20
283.8092123971391
 10
404.3405533348332
 20
283.8092123971391
  0
LWPOLYLINE
  5
961
330
1F
100
AcDbEntity
  8
0
100
AcDbPolyline
 90
        2
 70
     0
 43
2.0
 10
404.3405533348332
 20
273.8092123971391
 10
404.3405533348332
 20
283.8092123971391
  0
LWPOLYLINE
  5
962
330
1F
100
AcDbEntity
  8
0
100
AcDbPolyline
 90
        2
 70
     0
 43
2.0
 10
402.3405533348332
 20
273.8092123971391
 10
402.3405533348332
 20
283.8092123971391
  0
LWPOLYLINE
  5
963
330
1F
100
AcDbEntity
  8
0
100
AcDbPolyline
 90
        2
 70
     0
 43
2.0
 10
301.3405533348332
 20
563.8092123971391
 10
303.3405533348332
 20
563.8092123971391
  0
LWPOLYLINE
  5
964
330
1F
100
AcDbEntity
  8
0
100
AcDbPolyline
 90
        2
 70
     0
 43
2.0
 10
404.3405533348332
 20
563.8092123971391
 10
402.3405533348332
 20
563.8092123971391
  0
LWPOLYLINE
  5
965
330
1F
100
AcDbEntity
  8
0
100
AcDbPolyline
 90
        2
 70
     0
 43
2.0
 10
733.3405533348332
 20
393.8092123971391
 10
733.3405533348332
 20
453.8092123971392
  0
LWPOLYLINE
  5
966
330
1F
100
AcDbEntity
  8
0
100
AcDbPolyline
 90
        2
 70
     0
 43
2.0
 10
652.3405533348332
 20
273.8092123971391
 10
603.3405533348331
 20
273.8092123971391
  0
LWPOLYLINE
  5
967
330
1F
100
AcDbEntity
  8
0
100
AcDbPolyline
 90
        2
 70
     0
 43
2.0
 10
502.3405533348332
 20
283.8092123971391
 10
504.3405533348332
 20
283.8092123971391
  0
LWPOLYLINE
  5
968
330
1F
100
AcDbEntity
  8
0
100
AcDbPolyline
 90
        2
 70
     0
 43
2.0
 10
504.3405533348332
 20
273.8092123971391
 10
504.3405533348332
 20
283.8092123971391
  0
LWPOLYLINE
  5
969
330
1F
100
AcDbEntity
  8
0
100
AcDbPolyline
 90
        2
 70
     0
 43
2.0
 10
502.3405533348332
 20
273.8092123971391
 10
502.3405533348332
 20
283.8092123971391
  0
LWPOLYLINE
  5
96A
330
1F
100
AcDbEntity
  8
0
100
AcDbPolyline
 90
        2
 70
     0
 43
2.0
 10
602.3405533348332
 20
283.8092123971391
 10
604.3405533348332
 20
283.8092123971391
  0
LWPOLYLINE
  5
96B
330
1F
100
AcDbEntity
  8
0
100
AcDbPolyline
 90
        2
 70
     0
 43
2.0
 10
602.3405533348332
 20
273.8092123971391
 10
602.3405533348332
 20
283.8092123971391
  0
LWPOLYLINE
  5
96C
330
1F
100
AcDbEntity
  8
0
100
AcDbPolyline
 90
        2
 70
     0
 43
2.0
 10
604.3405533348332
 20
273.8092123971391
 10
604.3405533348332
 20
283.8092123971391
  0
LWPOLYLINE
  5
96D
330
1F
100
AcDbEntity
  8
0
100
AcDbPolyline
 90
        2
 70
     0
 43
2.0
 10
753.3405533348331
 20
273.8092123971391
 10
753.3405533348331
 20
373.8092123971391
  0
LWPOLYLINE
  5
96E
330
1F
100
AcDbEntity
  8
0
100
AcDbPolyline
 90
        2
 70
     0
 43
2.0
 10
705.3405533348332
 20
283.8092123971391
 10
703.3405533348331
 20
283.8092123971391
  0
LWPOLYLINE
  5
96F
330
1F
100
AcDbEntity
  8
0
100
AcDbPolyline
 90
        2
 70
     0
 43
2.0
 10
705.3405533348332
 20
273.8092123971391
 10
705.3405533348332
 20
283.8092123971391
  0
LWPOLYLINE
  5
970
330
1F
100
AcDbEntity
  8
0
100
AcDbPolyline
 90
        2
 70
     0
 43
2.0
 10
703.3405533348331
 20
273.8092123971391
 10
703.3405533348331
 20
283.8092123971391
  0
LWPOLYLINE
  5
971
330
1F
100
AcDbEntity
  8
0
100
AcDbPolyline
 90
        2
 70
     0
 43
2.0
 10
753.3405533348331
 20
373.8092123971391
 10
733.3405533348332
 20
393.8092123971391
  0
LWPOLYLINE
  5
972
330
1F
100
AcDbEntity
  8
0
100
AcDbPolyline
 90
        2
 70
     0
 43
2.0
 10
504.3405533348332
 20
563.8092123971391
 10
502.3405533348332
 20
563.8092123971391
  0
LWPOLYLINE
  5
973
330
1F
100
AcDbEntity
  8
0
100
AcDbPolyline
 90
        2
 70
     0
 43
2.0
 10
604.3405533348332
 20
563.8092123971391
 10
602.3405533348332
 20
563.8092123971391
  0
LWPOLYLINE
  5
974
330
1F
100
AcDbEntity
  8
SCALE
100
AcDbPolyline
 90
        2
 70
     0
 43
1.0
 10
753.3405533348331
 20
483.8092123971391
 10
753.3405533348331
 20
504.3092123971391
  0
LWPOLYLINE
  5
975
330
1F
100
AcDbEntity
  8
SCALE
100
AcDbPolyline
 90
        2
 70
     0
 43
1.0
 10
733.3405533348332
 20
463.8092123971391
 10
733.3405533348332
 20
504.3092123971391
  0
LWPOLYLINE
  5
976
330
1F
100
AcDbEntity
  8
0
100
AcDbPolyline
 90
        2
 70
     0
 43
2.0
 10
733.3405533348332
 20
453.8092123971392
 10
753.3405533348331
 20
473.8092123971391
  0
LWPOLYLINE
  5
977
330
1F
100
AcDbEntity
  8
SCALE
100
AcDbPolyline
 90
        2
 70
     0
 43
1.0
 10
733.3405533348332
 20
503.8092123971392
 10
753.3405533348331
 20
503.8092123971392
  0
LWPOLYLINE
  5
978
330
1F
100
AcDbEntity
  8
SCALE
100
AcDbPolyline
 90
        2
 70
     0
 43
1.0
 10
723.3405533348332
 20
503.8092123971392
 10
713.3405533348332
 20
503.8092123971392
  0
LWPOLYLINE
  5
979
330
1F
100
AcDbEntity
  8
0
100
AcDbPolyline
 90
        2
 70
     0
 43
2.0
 10
704.3405533348332
 20
563.8092123971391
 10
702.3405533348332
 20
563.8092123971391
  0
LWPOLYLINE
  5
97A
330
1F
100
AcDbEntity
  8
SCALE
100
AcDbPolyline
 90
        2
 70
     0
 43
1.0
 10
243.3405533348332
 20
573.8092123971391
 10
154.3063192241543
 20
573.8092123971391
  0
LWPOLYLINE
  5
97B
330
1F
100
AcDbEntity
  8
0
100
AcDbPolyline
 90
        2
 70
     0
 43
2.0
 10
753.3405533348331
 20
573.8092123971391
 10
253.3405533348332
 20
573.8092123971391
  0
LWPOLYLINE
  5
97C
330
1F
100
AcDbEntity
  8
0
100
AcDbPolyline
 90
        2
 70
     0
 43
2.0
 10
753.3405533348331
 20
573.8092123971391
 10
253.3405533348332
 20
573.8092123971391
  0
LWPOLYLINE
  5
97D
330
1F
100
AcDbEntity
  8
SCALE
100
AcDbPolyline
 90
        2
 70
     0
 43
1.0
 10
253.3405533348332
 20
583.8092123971391
 10
253.3405533348332
 20
674.309216433071
  0
LWPOLYLINE
  5
97E
330
1F
100
AcDbEntity
  8
0
100
AcDbPolyline
 90
        2
 70
     0
 43
2.0
 10
354.3405533348332
 20
573.8092123971391
 10
403.3405533348331
 20
573.8092123971391
  0
LWPOLYLINE
  5
984
330
1F
100
AcDbEntity
  8
SCALE
100
AcDbPolyline
 90
        2
 70
     0
 43
1.0
 10
753.3405533348331
 20
583.8092123971391
 10
753.3405533348331
 20
674.309216433071
  0
LWPOLYLINE
  5
985
330
1F
100
AcDbEntity
  8
0
100
AcDbPolyline
 90
        2
 70
     0
 43
1.0
 10
873.3405533348332
 20
573.8092123971391
 10
923.3405533348332
 20
568.8092123971391
  0
LWPOLYLINE
  5
986
330
1F
100
AcDbEntity
  8
0
100
AcDbPolyline
 90
        2
 70
     0
 43
2.0
 10
902.3405533348332
 20
566.7092123971392
 10
902.3405533348332
 20
571.7092123971392
  0
LWPOLYLINE
  5
987
330
1F
100
AcDbEntity
  8
0
100
AcDbPolyline
 90
        2
 70
     0
 43
2.0
 10
894.3405533348332
 20
566.7092123971392
 10
894.3405533348332
 20
571.7092123971392
  0
LWPOLYLINE
  5
988
330
1F
100
AcDbEntity
  8
0
100
AcDbPolyline
 90
        2
 70
     0
 43
2.0
 10
897.3405533348332
 20
571.7092123971392
 10
897.3405533348332
 20
551.7092123971393
  0
LWPOLYLINE
  5
989
330
1F
100
AcDbEntity
  8
0
100
AcDbPolyline
 90
        2
 70
     0
 43
2.0
 10
899.3405533348331
 20
571.7092123971392
 10
899.3405533348331
 20
551.7092123971393
  0
LWPOLYLINE
  5
98A
330
1F
100
AcDbEntity
  8
0
100
AcDbPolyline
 90
        2
 70
     0
 43
2.0
 10
873.3405533348332
 20
273.8092123971391
 10
873.3405533348332
 20
573.8092123971391
  0
LWPOLYLINE
  5
98B
330
1F
100
AcDbEntity
  8
MOJI
100
AcDbPolyline
 90
        2
 70
     0
 43
1.0
 10
883.4311958477574
 20
244.2004817613887
 10
904.4402247816169
 20
272.7110130107039
  0
LWPOLYLINE
  5
98C
330
1F
100
AcDbEntity
  8
MOJI
100
AcDbPolyline
 90
        2
 70
     0
 43
1.0
 10
859.2853457856454
 20
245.4607321348102
 10
898.9616115983718
 20
289.8722507124857
  0
LWPOLYLINE
  5
98D
330
1F
100
AcDbEntity
  8
SCALE
100
AcDbPolyline
 90
        2
 70
     0
 43
1.0
 10
1012.8010072169
 20
558.8092123971391
 10
1012.8010072169
 20
288.8092123971391
  0
LWPOLYLINE
  5
98E
330
1F
100
AcDbEntity
  8
SCALE
100
AcDbPolyline
 90
        2
 70
     0
 43
1.0
 10
830.0035034752781
 20
403.8092123971392
 10
830.0035034752781
 20
443.8092123971391
  0
LWPOLYLINE
  5
98F
330
1F
100
AcDbEntity
  8
0
100
AcDbPolyline
 90
        2
 70
     0
 43
2.0
 10
923.3405533348332
 20
473.8092123971391
 10
923.3405533348332
 20
278.8092123971391
  0
LWPOLYLINE
  5
990
330
1F
100
AcDbEntity
  8
0
100
AcDbPolyline
 90
        2
 70
     0
 43
1.0
 10
873.3405533348332
 20
273.8092123971391
 10
923.3405533348332
 20
278.8092123971391
  0
LWPOLYLINE
  5
991
330
1F
100
AcDbEntity
  8
0
100
AcDbPolyline
 90
        2
 70
     0
 43
2.0
 10
897.3405533348332
 20
295.9092123971391
 10
899.3405533348331
 20
295.9092123971391
  0
LWPOLYLINE
  5
992
330
1F
100
AcDbEntity
  8
0
100
AcDbPolyline
 90
        2
 70
     0
 43
2.0
 10
897.3405533348332
 20
275.909212397139
 10
894.3405533348332
 20
275.909212397139
  0
LWPOLYLINE
  5
993
330
1F
100
AcDbEntity
  8
0
100
AcDbPolyline
 90
        2
 70
     0
 43
2.0
 10
894.3405533348332
 20
275.909212397139
 10
894.3405533348332
 20
280.909212397139
  0
LWPOLYLINE
  5
994
330
1F
100
AcDbEntity
  8
0
100
AcDbPolyline
 90
        2
 70
     0
 43
2.0
 10
899.3405533348331
 20
275.909212397139
 10
902.3405533348332
 20
275.909212397139
  0
LWPOLYLINE
  5
995
330
1F
100
AcDbEntity
  8
0
100
AcDbPolyline
 90
        2
 70
     0
 43
2.0
 10
902.3405533348332
 20
275.909212397139
 10
902.3405533348332
 20
280.909212397139
  0
LWPOLYLINE
  5
996
330
1F
100
AcDbEntity
  8
0
100
AcDbPolyline
 90
        2
 70
     0
 43
2.0
 10
897.3405533348332
 20
275.909212397139
 10
897.3405533348332
 20
295.9092123971391
  0
LWPOLYLINE
  5
997
330
1F
100
AcDbEntity
  8
0
100
AcDbPolyline
 90
        2
 70
     0
 43
2.0
 10
899.3405533348331
 20
275.909212397139
 10
899.3405533348331
 20
295.9092123971391
  0
LWPOLYLINE
  5
998
330
1F
100
AcDbEntity
  8
SCALE
100
AcDbPolyline
 90
        2
 70
     0
 43
1.0
 10
830.5035034752782
 20
373.8092123971391
 10
830.5035034752782
 20
393.8092123971391
  0
LWPOLYLINE
  5
999
330
1F
100
AcDbEntity
  8
SCALE
100
AcDbPolyline
 90
        2
 70
     0
 43
1.0
 10
830.5035034752782
 20
403.8092123971392
 10
830.5035034752782
 20
413.8092123971391
  0
LWPOLYLINE
  5
99A
330
1F
100
AcDbEntity
  8
SCALE
100
AcDbPolyline
 90
        2
 70
     0
 43
1.0
 10
830.5035034752782
 20
363.8092123971391
 10
830.5035034752782
 20
353.8092123971391
  0
LWPOLYLINE
  5
99B
330
1F
100
AcDbEntity
  8
0
100
AcDbPolyline
 90
        2
 70
     0
 43
2.0
 10
923.3405533348332
 20
393.8092123971391
 10
873.3405533348332
 20
393.8092123971391
  0
LWPOLYLINE
  5
99C
330
1F
100
AcDbEntity
  8
0
100
AcDbPolyline
 90
        2
 70
     0
 43
2.0
 10
923.3405533348332
 20
373.8092123971391
 10
873.3405533348332
 20
373.8092123971391
  0
LWPOLYLINE
  5
99D
330
1F
100
AcDbEntity
  8
SCALE
100
AcDbPolyline
 90
        2
 70
     0
 43
1.0
 10
933.3405533348331
 20
278.8092123971391
 10
1013.301007216899
 20
278.8092123971391
  0
LWPOLYLINE
  5
99E
330
1F
100
AcDbEntity
  8
SCALE
100
AcDbPolyline
 90
        2
 70
     0
 43
1.0
 10
830.5035034752782
 20
483.8092123971391
 10
830.5035034752782
 20
493.8092123971391
  0
LWPOLYLINE
  5
99F
330
1F
100
AcDbEntity
  8
0
100
AcDbPolyline
 90
        2
 70
     0
 43
2.0
 10
923.3405533348332
 20
568.8092123971391
 10
923.3405533348332
 20
473.8092123971391
  0
LWPOLYLINE
  5
9A0
330
1F
100
AcDbEntity
  8
SCALE
100
AcDbPolyline
 90
        2
 70
     0
 43
1.0
 10
830.5035034752782
 20
453.8092123971392
 10
830.5035034752782
 20
473.8092123971391
  0
LWPOLYLINE
  5
9A1
330
1F
100
AcDbEntity
  8
SCALE
100
AcDbPolyline
 90
        2
 70
     0
 43
1.0
 10
830.5035034752782
 20
443.8092123971391
 10
830.5035034752782
 20
433.8092123971391
  0
LWPOLYLINE
  5
9A2
330
1F
100
AcDbEntity
  8
0
100
AcDbPolyline
 90
        2
 70
     0
 43
2.0
 10
923.3405533348332
 20
473.8092123971391
 10
873.3405533348332
 20
473.8092123971391
  0
LWPOLYLINE
  5
9A3
330
1F
100
AcDbEntity
  8
0
100
AcDbPolyline
 90
        2
 70
     0
 43
2.0
 10
923.3405533348332
 20
453.8092123971392
 10
873.3405533348332
 20
453.8092123971392
  0
LWPOLYLINE
  5
9A4
330
1F
100
AcDbEntity
  8
0
100
AcDbPolyline
 90
        2
 70
     0
 43
2.0
 10
897.3405533348332
 20
551.7092123971393
 10
899.3405533348331
 20
551.7092123971393
  0
LWPOLYLINE
  5
9A5
330
1F
100
AcDbEntity
  8
SCALE
100
AcDbPolyline
 90
        2
 70
     0
 43
1.0
 10
933.3405533348331
 20
568.8092123971391
 10
1013.301007216899
 20
568.8092123971391
  0
LWPOLYLINE
  5
9A6
330
1F
100
AcDbEntity
  8
SCALE
100
AcDbPolyline
 90
        2
 70
     0
 43
1.0
 10
923.3405533348332
 20
578.8092123971392
 10
923.3405533348332
 20
674.3092164330719
  0
LWPOLYLINE
  5
9A7
330
1F
100
AcDbEntity
  8
SCALE
100
AcDbPolyline
 90
        2
 70
     0
 43
1.0
 10
873.3405533348332
 20
583.8092123971391
 10
873.3405533348332
 20
674.3092164330719
  0
LWPOLYLINE
  5
9A8
330
1F
100
AcDbEntity
  8
0
100
AcDbPolyline
 90
        2
 70
     0
 43
2.0
 10
899.3405533348331
 20
571.7092123971392
 10
902.3405533348332
 20
571.7092123971392
  0
LWPOLYLINE
  5
9A9
330
1F
100
AcDbEntity
  8
0
100
AcDbPolyline
 90
        2
 70
     0
 43
2.0
 10
897.3405533348332
 20
571.7092123971392
 10
894.3405533348332
 20
571.7092123971392
  0
LWPOLYLINE
  5
9AA
330
1F
100
AcDbEntity
  8
SCALE
100
AcDbPolyline
 90
        2
 70
     0
 43
1.0
 10
883.3405533348331
 20
673.8092164330719
 10
913.3405533348332
 20
673.8092164330719
  0
VIEWPORT
  5
71
330
55
100
AcDbEntity
 67
     1
  8
0
100
AcDbViewport
 10
133.3499908447265
 20
101.5999970436096
 30
0.0
 40
381.3957395593834
 41
218.2856291881582
 68
     1
 69
     1
1001
ACAD
1000
MVIEW
1002
{
1070
    16
1010
0.0
1020
0.0
1030
0.0
1010
0.0
1020
0.0
1030
1.0
1040
0.0
1040
218.2856291881582
1040
133.3499908447265
1040
101.5999970436096
1040
50.0
1040
0.0
1040
0.0
1070
     0
1070
   100
1070
     1
1070
     1
1070
     0
1070
     0
1070
     0
1070
     0
1040
0.0
1040
0.0
1040
0.0
1040
10.0
1040
10.0
1040
10.0
1040
10.0
1070
     0
1002
{
1002
}
1002
}
  0
VIEWPORT
  5
73
330
55
100
AcDbEntity
 67
     1
  8
0
100
AcDbViewport
 10
133.349993944168
 20
101.599993944168
 30
0.0
 40
213.3599903106689
 41
162.5599903106689
 68
     2
 69
     2
1001
ACAD
1000
MVIEW
1002
{
1070
    16
1010
0.0
1020
0.0
1030
0.0
1010
0.0
1020
0.0
1030
1.0
1040
0.0
1040
324.0677920111345
1040
210.0
1040
148.5
1040
50.0
1040
0.0
1040
0.0
1070
     0
1070
   100
1070
     1
1070
     3
1070
     0
1070
     0
1070
     0
1070
     0
1040
0.0
1040
0.0
1040
0.0
1040
10.0
1040
10.0
1040
10.0
1040
10.0
1070
     0
1002
{
1002
}
1002
}
  0
ENDSEC
  0
SECTION
  2
OBJECTS
  0
DICTIONARY
  5
C
330
0
100
AcDbDictionary
  3
ACAD_GROUP
350
D
  3
ACAD_LAYOUT
350
1A
  3
ACAD_MLINESTYLE
350
17
  3
ACAD_PLOTSETTINGS
350
19
  3
ACAD_PLOTSTYLENAME
350
E
  3
ACDBHEADERROUNDTRIPXREC
350
A03
  3
ACDBVARIABLEDICTIONARY
350
5E
  0
DICTIONARY
  5
2E8
330
1F
100
AcDbDictionary
280
     1
  3
ACAD_LAYOUTSELFREF
360
A24
  0
DICTIONARY
  5
2EA
330
55
100
AcDbDictionary
280
     1
  3
ACAD_LAYOUTSELFREF
360
A26
  0
DICTIONARY
  5
D
102
{ACAD_REACTORS
330
C
102
}
330
C
100
AcDbDictionary
  0
DICTIONARY
  5
1A
102
{ACAD_REACTORS
330
C
102
}
330
C
100
AcDbDictionary
  0
DICTIONARY
  5
17
102
{ACAD_REACTORS
330
C
102
}
330
C
100
AcDbDictionary
  3
STANDARD
350
18
  0
DICTIONARY
  5
19
102
{ACAD_REACTORS
330
C
102
}
330
C
100
AcDbDictionary
  0
ACDBDICTIONARYWDFLT
  5
E
102
{ACAD_REACTORS
330
C
102
}
330
C
100
AcDbDictionary
281
     1
  3
Normal
350
F
100
AcDbDictionaryWithDefault
340
F
  0
DICTIONARY
  5
A03
102
{ACAD_REACTORS
330
C
102
}
330
C
100
AcDbDictionary
  3
CEPSNTYPE
350
A0D
  3
DIMSTYLEDATA
350
A11
  3
FINGERPRINTGUID
350
A0E
  3
HYPERLINKBASE
350
A06
  3
INSUNITS
350
A0C
  3
LAYOUTDICT
350
A08
  3
LWETCUNION
350
A0B
  3
PLOTSETDICT
350
A09
  3
PLOTSTYLNAMDICT
350
A0A
  3
PSVPSCALE
350
A10
  3
PUCSBASE
350
A14
  3
PUCSORGBACK
350
A1A
  3
PUCSORGBOTTOM
350
A16
  3
PUCSORGFRONT
350
A19
  3
PUCSORGLEFT
350
A17
  3
PUCSORGRIGHT
350
A18
  3
PUCSORGTOP
350
A15
  3
PUCSORTHOREF
350
A12
  3
PUCSORTHOVIEW
350
A13
  3
STYLESHEET
350
A07
  3
TSTACKALIGN
350
A04
  3
TSTACKSIZE
350
A05
  3
UCSBASE
350
A1D
  3
UCSORGBACK
350
A23
  3
UCSORGBOTTOM
350
A1F
  3
UCSORGFRONT
350
A22
  3
UCSORGLEFT
350
A20
  3
UCSORGRIGHT
350
A21
  3
UCSORGTOP
350
A1E
  3
UCSORTHOREF
350
A1B
  3
UCSORTHOVIEW
350
A1C
  3
VERSIONGUID
350
A0F
  0
DICTIONARY
  5
5E
102
{ACAD_REACTORS
330
C
102
}
330
C
100
AcDbDictionary
  3
DIMASSOC
350
5F
  3
HIDETEXT
350
63
  0
XRECORD
  5
A24
102
{ACAD_REACTORS
330
2E8
102
}
330
2E8
100
AcDbXrecord
340
1F
  0
XRECORD
  5
A26
102
{ACAD_REACTORS
330
2EA
102
}
330
2EA
100
AcDbXrecord
340
55
  0
MLINESTYLE
  5
18
102
{ACAD_REACTORS
330
17
102
}
330
17
100
AcDbMlineStyle
  2
STANDARD
 70
     0
  3

 62
   256
 51
90.0
 52
90.0
 71
     2
 49
0.5
 62
   256
  6
BYLAYER
 49
-0.5
 62
   256
  6
BYLAYER
  0
ACDBPLACEHOLDER
  5
F
102
{ACAD_REACTORS
330
E
102
}
330
E
100
AcDbPlaceHolder
280
     0
  0
XRECORD
  5
A0D
102
{ACAD_REACTORS
330
A03
102
}
330
A03
100
AcDbXrecord
 90
        0
  0
XRECORD
  5
A11
102
{ACAD_REACTORS
330
A03
102
}
330
A03
100
AcDbXrecord
1000
DSTYLE
1002
{
1070
   278
 70
    44
1070
   371
 70
    -1
1070
   372
 70
    -1
1002
}
  0
XRECORD
  5
A0E
102
{ACAD_REACTORS
330
A03
102
}
330
A03
100
AcDbXrecord
  1
{FDEAD578-A652-11D2-9A35-0060089B3A3F}
  0
XRECORD
  5
A06
102
{ACAD_REACTORS
330
A03
102
}
330
A03
100
AcDbXrecord
  1

  0
XRECORD
  5
A0C
102
{ACAD_REACTORS
330
A03
102
}
330
A03
100
AcDbXrecord
 90
        4
  0
XRECORD
  5
A08
102
{ACAD_REACTORS
330
A03
102
}
330
A03
100
AcDbXrecord
340
1A
  0
XRECORD
  5
A0B
102
{ACAD_REACTORS
330
A03
102
}
330
A03
100
AcDbXrecord
 90
    10781
  0
XRECORD
  5
A09
102
{ACAD_REACTORS
330
A03
102
}
330
A03
100
AcDbXrecord
340
19
  0
XRECORD
  5
A0A
102
{ACAD_REACTORS
330
A03
102
}
330
A03
100
AcDbXrecord
340
E
  0
XRECORD
  5
A10
102
{ACAD_REACTORS
330
A03
102
}
330
A03
100
AcDbXrecord
 40
0.0
  0
XRECORD
  5
A14
102
{ACAD_REACTORS
330
A03
102
}
330
A03
100
AcDbXrecord
340
0
  0
XRECORD
  5
A1A
102
{ACAD_REACTORS
330
A03
102
}
330
A03
100
AcDbXrecord
 10
0.0
 20
0.0
 30
0.0
  0
XRECORD
  5
A16
102
{ACAD_REACTORS
330
A03
102
}
330
A03
100
AcDbXrecord
 10
0.0
 20
0.0
 30
0.0
  0
XRECORD
  5
A19
102
{ACAD_REACTORS
330
A03
102
}
330
A03
100
AcDbXrecord
 10
0.0
 20
0.0
 30
0.0
  0
XRECORD
  5
A17
102
{ACAD_REACTORS
330
A03
102
}
330
A03
100
AcDbXrecord
 10
0.0
 20
0.0
 30
0.0
  0
XRECORD
  5
A18
102
{ACAD_REACTORS
330
A03
102
}
330
A03
100
AcDbXrecord
 10
0.0
 20
0.0
 30
0.0
  0
XRECORD
  5
A15
102
{ACAD_REACTORS
330
A03
102
}
330
A03
100
AcDbXrecord
 10
0.0
 20
0.0
 30
0.0
  0
XRECORD
  5
A12
102
{ACAD_REACTORS
330
A03
102
}
330
A03
100
AcDbXrecord
340
0
  0
XRECORD
  5
A13
102
{ACAD_REACTORS
330
A03
102
}
330
A03
100
AcDbXrecord
 70
     0
  0
XRECORD
  5
A07
102
{ACAD_REACTORS
330
A03
102
}
330
A03
100
AcDbXrecord
  1
aclt.ctb
  0
XRECORD
  5
A04
102
{ACAD_REACTORS
330
A03
102
}
330
A03
100
AcDbXrecord
 90
        1
  0
XRECORD
  5
A05
102
{ACAD_REACTORS
330
A03
102
}
330
A03
100
AcDbXrecord
 90
       70
  0
XRECORD
  5
A1D
102
{ACAD_REACTORS
330
A03
102
}
330
A03
100
AcDbXrecord
340
0
  0
XRECORD
  5
A23
102
{ACAD_REACTORS
330
A03
102
}
330
A03
100
AcDbXrecord
 10
0.0
 20
0.0
 30
0.0
  0
XRECORD
  5
A1F
102
{ACAD_REACTORS
330
A03
102
}
330
A03
100
AcDbXrecord
 10
0.0
 20
0.0
 30
0.0
  0
XRECORD
  5
A22
102
{ACAD_REACTORS
330
A03
102
}
330
A03
100
AcDbXrecord
 10
0.0
 20
0.0
 30
0.0
  0
XRECORD
  5
A20
102
{ACAD_REACTORS
330
A03
102
}
330
A03
100
AcDbXrecord
 10
0.0
 20
0.0
 30
0.0
  0
XRECORD
  5
A21
102
{ACAD_REACTORS
330
A03
102
}
330
A03
100
AcDbXrecord
 10
0.0
 20
0.0
 30
0.0
  0
XRECORD
  5
A1E
102
{ACAD_REACTORS
330
A03
102
}
330
A03
100
AcDbXrecord
 10
0.0
 20
0.0
 30
0.0
  0
XRECORD
  5
A1B
102
{ACAD_REACTORS
330
A03
102
}
330
A03
100
AcDbXrecord
340
0
  0
XRECORD
  5
A1C
102
{ACAD_REACTORS
330
A03
102
}
330
A03
100
AcDbXrecord
 70
     0
  0
XRECORD
  5
A0F
102
{ACAD_REACTORS
330
A03
102
}
330
A03
100
AcDbXrecord
  1
{E2817F42-0D2A-4844-82E6-02F36C58045F}
  0
DICTIONARYVAR
  5
5F
102
{ACAD_REACTORS
330
5E
102
}
330
5E
100
DictionaryVariables
280
     0
  1
2
  0
DICTIONARYVAR
  5
63
102
{ACAD_REACTORS
330
5E
102
}
330
5E
100
DictionaryVariables
280
     0
  1
1
  0
ENDSEC
  0
EOF
